Song name
# A B C D E F G H I J K L M N O P Q R S T U V W X Y Z

Die Apokalyptischen Reiter - Regret tab

Artist: Die Apokalyptischen Reiter
Title: Regret
Album: All You Need Is Love

Tabber: fleX172

.  - palm mute
"  - tremolo note

Standart Tuning E A D G B E

Intro:

|-------------------------------------------------------------------|
|-------------------------------------------------------------------|
|-------------------------------------------------------------------|
|--------------------------1--------------3-5-----------------------|
|--3--3--3-1-3-4--3--3-1-3----3--3-1-3-4------4---------------------|
|-------------------------------------------------------------------|

|-------------------------------------------------------------------|
|-------------------------------------------------------------------|
|-------------------------------------------------------------------|
|--------------------------1----------------------------------------|
|--3--3--3-1-3-4--3--3-1-3----3--3-1-3-4--3--1----------------------|
|-------------------------------------------------------------------|

Riff 1:

|-------------------------------------------------------------------|
|-------------------------------------------------------------------|
|-------------------------------------------------------------------|
|--6-5-5-5-5--6-5--6-8-8-8--6-5-5-5-5--5-5--5--5-8------------------|
|--4-3-3-3-3--4-3--4-6-6-6--4-3-3-3-3--3-3--3--3-6------------------|
|--4-3-3-3-3--4-3--4-6-6-6--4-3-3-3-3--3-3--3--3-6------------------|
       . .                      . .

Riff 2:

|-------------------------------------------------------------------|
|-------------------------------------------------------------------|
|-------------------------------------------------------------------|
|------------------------3"-5"--------------------------------------|
|--3"---4"-3"---6"-3"--4"-----4"----3"---4"-3"---6"-3"---4"-3"-1"---|
|-------------------------------------------------------------------|

Riff 3.1:

|-------------------------------------------------------------------|
|-------------------------------------------------------------------|
|-------------------------------------------------------------------|
|--6-5-3---3-----10---10----6-5-3---3-----6----6--------------------|
|--------6---6---8----8-----------6---6---4----4--------------------|
|----------------8----8-------------------4----4--------------------|

Riff 3.2:

|-------------------------------------------------------------------|
|-------------------------------------------------------------------|
|-------------------------------------------------------------------|
|--6-5-3---3--------------------------------------------------------|
|--------6---6------------------------------------------------------|
|-------------------------------------------------------------------|

Riff 4.1:

|-------------------------------------------------------------------|
|-------------------------------------------------------------------|
|-------------------------------------------------------------------|
|--10--10----10-6--6---6--------------------------------------------|
|--8---8-----8--4--4---4--------------------------------------------|
|--8---8-----8--4--4---4--------------------------------------------|

Riff 4.2:

|-------------------------------------------------------------------|
|-------------------------------------------------------------------|
|-------------------------------------------------------------------|
|--10---------------------------------------------------------------|
|--8----------------------------------------------------------------|
|--8----------------------------------------------------------------|


Order:

Intro
Riff 1   2x
Riff 2   3x
Riff 3.1 4x
Riff 3.2 1x
Riff 1   2x
Riff 2   3x
Keyboard Solo
Riff 4.1 8x
Riff 4.2 1x
Tap to rate this tab
# A B C D E F G H I J K L M N O P Q R S T U V W X Y Z