Song name
# A B C D E F G H I J K L M N O P Q R S T U V W X Y Z

Die Apokalyptischen Reiter - Auf Die Liebe tab

Auf die Liebe  Die apokalyptischen Reiter

Intro/Main Riff:x2
e----------------------------|--------6-9-8-6---8--------|
H------6---------------------|--6---6---------9----------|
G----8---8-6--8-6-5--6-5-----|----8----------------------|
D------------------------8---|---------------------------|
A--------------------------8-|---------------------------|
E----------------------------|---------------------------|

e----------------------------|---------------------------|
H------6---------------------|--6-6-676-676--6-----------|
G----8---8-6--8-6-5----6-----|---------8---8-------------|
D--------------------8---8---|---------------------------|
A----------------------------|---------------------------|
E----------------------------|---------------------------|

Verse1:x2

e----------------------------|
H----------------------------|
G-----6-------------6--------|
D--8--6--4--3----8--6--4--6--| 
A--8--4--4--3----8--4--4--6--|
E--6-----2--1----6-----2--4--|

Main Riff

Verse2: (same as Verse1)

Chorus:

e-------------------------------------------|
H-------------------------------------------|
G------------4--------------------4-------8-|
D--3----6----4----4--2--3----6----4----6--8-| 
A--3----6----2----4--2--3----6----2----6--6-|
E--1----4---------2--1--1----4---------4----|

Main Riff

Verse3: (Verse1)

Riff2:

e----------------|--------------------|
H--6-8-9-8-6-----|-----6--------------|
G------------8-5-|-6-8---8-6-5-6-5----|
D----------------|-----------------8--|
A----------------|--------------------|
E----------------|--------------------|

Chorus x2
Tap to rate this tab
 
# A B C D E F G H I J K L M N O P Q R S T U V W X Y Z