Song name
# A B C D E F G H I J K L M N O P Q R S T U V W X Y Z

Die Apokalyptischen Reiter - Eruption tab

Tabbed by Ear, but i think it's 100% correct.



      E   E   E   E   E   S  E   E.      E   E   E   E   S  E   Q    S  
E||--12--10--12--10--12--10----------|--12--10--12--10--12-10----------|
B||-------------------------12--10---|-------------------------12----L-|
G||----------------------------------|---------------------------------|
D||----------------------------------|---------------------------------|
A||----------------------------------|---------------------------------|
E||----------------------------------|---------------------------------|


      E   E   E   E   E   S  E   E.      S S  S  S  E   S H        S   
E||--12--10--12--10--12--10----------|--10-9-------------------------||
B||-------------------------12--10---|-------12-10-12--10-7--------L-||
G||----------------------------------|-------------------------------||
D||----------------------------------|-------------------------------||
A||----------------------------------|-------------------------------||
E||----------------------------------|-------------------------------||




Duration Legend
---------------
W - whole
H - half
Q - quarter
E - 8th
S - 16th
T - 32nd
X - 64th
. - note dotted
Tap to rate this tab
# A B C D E F G H I J K L M N O P Q R S T U V W X Y Z