Song name
# A B C D E F G H I J K L M N O P Q R S T U V W X Y Z

Die Apokalyptischen Reiter - Eruption tab

Intro:

---12--10--12--10--12--10--------  ---12--10--12--10--12--10-----|
---------------------------12--10  ---------------------------12-|
---------------------------------  ------------------------------|
---------------------------------  ------------------------------|
---------------------------------  ------------------------------|
---------------------------------  ------------------------------|

---12--10--12--10--12--10---------|
---------------------------12--10-|
----------------------------------|
----------------------------------|
----------------------------------|
----------------------------------|

Refrain:

---------------------------------  -----------------------------|
---------------------------------  -----------------------------|
---------------------------------  -----------------------------|
--2-2------------7-5h7h5---------  --2-2------------------------|
--2-2-----7--5h7----------7--5---  --2-2-----7--5h7--8-/-5------|
--0-0----------------------------  --0-0-------------6-/-3------|

---------------------------------  -----------------------------|
---------------------------------  -----------------------------|
---------------------------------  -----------------------------|
--2-2------------7-5h7h5---------  -----------------------------|
--2-2-----7--5h7----------7--5---  -8--5--7--2------------------|
--0-0----------------------------  -6--3--5--0------------------|
Tap to rate this tab
 
# A B C D E F G H I J K L M N O P Q R S T U V W X Y Z