Song name
# A B C D E F G H I J K L M N O P Q R S T U V W X Y Z

Die Arzte - Junge tab

Die Ärzte - Junge

Achtung, Zombietuning (Eb,Ab,Db,Gb,B,Eb)!
Der Einfachheit halber sind die "normalen" Akkorde hingeschrieben.

Mainriff
G A
|----------------3-----|---------------------|
|-----3------------3---|-----2-----2h3-2-----|
|-------0------------0-|-------2---------2---|
|---0-----0----0-------|---2-----2---------2-|
|----------------------|-0-------------------|
|-3----------3---------|---------------------|

bm
|---------------------|---------------------|
|-----3---------2-----|-----3---------2-----|
|-------4---------4---|-------4---------4---|
|---4-----4---4-----4-|---4-----4---4-----4-|
|-2---------2---------|-2---------2---------|
|---------------------|---------------------|

Mainriff*
G A
|----------------3-----|---------------------|
|-----3------------3---|-----2-----2h3-2-----|
|-------0------------0-|-------2---------2---|
|---0-----0----0-------|---2-----2---------2-|
|----------------------|-0-------------------|
|-3----------3---------|---------------------|

bm gbm
|---------------------|---------------------|
|-----3---------2-----|-----2-----2h3-2-----|
|-------4---------4---|-------2---------2---|
|---4-----4---4-----4-|---------4---------4-|
|-2---------2---------|---4-----------------|
|---------------------|-2-------------------|



Riff 1
|-------------|-------|------------|----|
|-10h12-10----|-------|------------|----|
|----------11-|-7-7h9-|-9-11-11h12-|-11-|
|-------------|-------|------------|----|
|-------------|-------|------------|----|
|-------------|-------|------------|----|

|--------------|-------|----------|
|-x-x-12-14-15-|-10-12-|-10h12p10-|
|--------------|-------|----------|
|--------------|-------|----------|
|--------------|-------|----------|
|--------------|-------|----------|

Fill 1
|-------|---|
|-------|---|
|-2/4/6-|-7-|
|-------|---|
|-------|---|
|-------|---|

Fill 2
|------------|
|-7-10-8-7---|
|----------7-|
|------------|
|------------|
|------------|

Fill 3
|-------------------|
|-15-14-12----------|
|----------11-12-14-|
|-------------------|
|-------------------|
|-------------------|

Fill 4
|-------|
|-------|
|-7-6-7-|
|-------|
|-------|
|-------|

Fill Fine
|-10b12^^^-| (Bending auf das e und mit Tremolo ausklingen lassen)
|----------|
|----------|
|----------|
|----------|
|----------|


Ablauf:

Intro:
2 x Mainriff, parallel dazu spielt zweite Gitarre Riff 1

Strophe:

G A bm
Junge, warum hast du nichts gelernt?
G A
Guck dir den Dieter an (den Dieter an, den Dieter an)
bm gbm (mit Fill 1)
Der hat sogar ein Auto.
G A
Warum gehst du nicht zu Onkel Werner in die Werkstatt?
bm (mit Fill 2)
Der gibt dir 'ne Festanstellung, wenn du ihn darum bittest.

Refrain:
G A
Junge...

[ab hier Powerchords + Distortion]
G
und wie du wieder aussiehst!
em bm
Löcher in der Hose und ständig dieser Lärm.
D
(Was solln die Nachbarn sagen?)
G em
Und dann noch deine Haare, da fehlen mir die Worte.
bm
Musst du die denn färben?
D
(Was solln die Nachbarn sagen?)
G em
Nie kommst du nach Hause, wir wissen nicht mehr weiter.

Strophe (wie vorher):
(Fill 3)
Junge, brich deiner Mutter nicht das Herz.
(Fill 4)
Es ist noch nicht zu spät (noch nicht zu spät),
Dich an der Uni einzuschreiben.
Du hast dich doch früher so für Tiere interessiert,
(Fill 3)
Wäre das nichts für dich? Eine eigene Praxis!

Refrain (wie vorher):
Junge - und wie du wieder aussiehst!
Löcher in der Nase und ständig dieser Lärm!
(Was solln die Nachbaren sagen?)
Elektrische Gitarren und immer diese Texte,
Das will doch keiner hörn!
(Was solln die Nachbaren sagen?)
Nie kommst du nach Hause, so viel schlechter Umgang!
Wir werden dich enterben!
(Was soll das Finanzamt sagen?)
Wo soll das alles enden?
Wir machen uns doch Sorgen!

Bridge (Powerchords schrammeln):
G em bm
Und du warst so ein süßes Kind.
D G
Und du warst so ein süßes Kind.
em bm
Und du warst so ein süßes Kind.
D (ausklingen lassen)
Du warst so süß...

Refrain:
G em
Und immer deine Freunde - ihr nehmt doch alle Drogen!
bm
Und ständig dieser Lärm!
D
(Was solln die Nachbarn sagen?)
G em (Ausklingen lassen, dazu Fill Fine)
Denk an deine Zukunft, denk an deine Eltern...

Willst du, daß wir sterben?
Tap to rate this tab
# A B C D E F G H I J K L M N O P Q R S T U V W X Y Z