Guitaretab - guitar tabs
Song name
# A B C D E F G H I J K L M N O P Q R S T U V W X Y Z

Die Die Die - Shyness Will Get You Nowhere tab

Die! Die! Die!
Shyness Will Get You Nowhere
Die! Die! Die! EP

Intro
|  --8----------------8-----------------8---------------8---------------- |
|  -----9----------------9------------------9--------------9------------- |
|  --------9-9--------------9-9----------------9-9------------9-9-------- |
|  --------------7-----------------7------------------7----------------7- |
|  ---------------------------------------------------------------------- |
|  ---------------------------------------------------------------------- |

|  --8----------------8-----------------8---------------8---------------- |
|  -----9----------------9------------------9--------------9------------- |
|  --------9-9--------------9-9----------------9-9------------9-9-------- |
|  --------------7-----------------7------------------7----------------7- |
|  ---------------------------------------------------------------------- |
|  ---------------------------------------------------------------------- |

Darling I know that you could do better,
Yeah I wish you could, wish you would
Darling I know that you could do better,
But you wish you could, wish you would

You see I donít trust you, I donít trust you,
I donít trust you, I DONíT TRUST YOU.

Main Riff
|  --------------------------------------------------------------------------------------- |
|  -------------------------------------------------------------------------5-5-5-5-5-5-5- |
|  --7-7-7-7-7-7-7--11-11-11-11-11-11-11-11--3-3-3-3-3-3-3---5-5-5-5-5-5-5---------------- |
|  --5-5-5-5-5-5-5--9---9---9--9---9---9--9--9---1-1-1-1-1-1-1---------------------------- |
|  --------------------------------------------------------------------------------------- |
|  --------------------------------------------------------------------------------------- |

|  --------------------------------------------------------------------------------------- |
|  -------------------------------------------------------------------------5-5-5-5-5-5-5- |
|  --7-7-7-7-7-7-7--11-11-11-11-11-11-11-11--3-3-3-3-3-3-3---5-5-5-5-5-5-5---------------- |
|  --5-5-5-5-5-5-5--9---9---9--9---9---9--9--9---1-1-1-1-1-1-1---------------------------- |
|  --------------------------------------------------------------------------------------- |
|  --------------------------------------------------------------------------------------- |

|  --------------------------------------------------------------------------------------- |
|  -------------------------------------------------------------------------5-5-5-5-5-5-5- |
|  --7-7-7-7-7-7-7--11-11-11-11-11-11-11-11--3-3-3-3-3-3-3---5-5-5-5-5-5-5---------------- |
|  --5-5-5-5-5-5-5--9---9---9--9---9---9--9--9---1-1-1-1-1-1-1---------------------------- |
|  --------------------------------------------------------------------------------------- |
|  --------------------------------------------------------------------------------------- |

|  --------------------------------------------------------------------------------------- |
|  -------------------------------------------------------------------------5-5-5-5-5-5-5- |
|  --7-7-7-7-7-7-7--11-11-11-11-11-11-11-11--3-3-3-3-3-3-3---5-5-5-5-5-5-5---------------- |
|  --5-5-5-5-5-5-5--9---9---9--9---9---9--9--9---1-1-1-1-1-1-1---------------------------- |
|  --------------------------------------------------------------------------------------- |
|  --------------------------------------------------------------------------------------- |
[ Tab from: http://www.guitaretab.com/d/die-die-die/84459.html ]
And she gave him everything,
Oh why did you?
And you asked him smiling,
So why the fuck are you frowning?

Bridge
|  ---------------------------------------- |
|  ---------------------------------------- |
|  --7-7-7-7-7-7-7-7-7-7-7-7-7-7-7-7-7-7-7- |
|  --7-7-7-7-7-7-7-7-7-7-7-7-7-7-7-7-7-7-7- |
|  --5-5-5-5-5-5-5-5-5-5-5-5-5-5-5-5-5-5-5- |
|  ---------------------------------------- |

I donít trust you, I donít trust you,
I donít trust you, I DONíT TRUST YOU.

|  --------------------------------------------------------------------------------------- |
|  -------------------------------------------------------------------------5-5-5-5-5-5-5- |
|  --7-7-7-7-7-7-7--11-11-11-11-11-11-11-11--3-3-3-3-3-3-3---5-5-5-5-5-5-5---------------- |
|  --5-5-5-5-5-5-5--9---9---9--9---9---9--9--9---1-1-1-1-1-1-1---------------------------- |
|  --------------------------------------------------------------------------------------- |
|  --------------------------------------------------------------------------------------- |

|  --------------------------------------------------------------------------------------- |
|  -------------------------------------------------------------------------5-5-5-5-5-5-5- |
|  --7-7-7-7-7-7-7--11-11-11-11-11-11-11-11--3-3-3-3-3-3-3---5-5-5-5-5-5-5---------------- |
|  --5-5-5-5-5-5-5--9---9---9--9---9---9--9--9---1-1-1-1-1-1-1---------------------------- |
|  --------------------------------------------------------------------------------------- |
|  --------------------------------------------------------------------------------------- |

|  --------------------------------------------------------------------------------------- |
|  -------------------------------------------------------------------------5-5-5-5-5-5-5- |
|  --7-7-7-7-7-7-7--11-11-11-11-11-11-11-11--3-3-3-3-3-3-3---5-5-5-5-5-5-5---------------- |
|  --5-5-5-5-5-5-5--9---9---9--9---9---9--9--9---1-1-1-1-1-1-1---------------------------- |
|  --------------------------------------------------------------------------------------- |
|  --------------------------------------------------------------------------------------- |

|  --------------------------------------------------------------------------------------- |
|  -------------------------------------------------------------------------5-5-5-5-5-5-5- |
|  --7-7-7-7-7-7-7--11-11-11-11-11-11-11-11--3-3-3-3-3-3-3---5-5-5-5-5-5-5---------------- |
|  --5-5-5-5-5-5-5--9---9---9--9---9---9--9--9---1-1-1-1-1-1-1---------------------------- |
|  --------------------------------------------------------------------------------------- |
|  --------------------------------------------------------------------------------------- |

Yeah just chilling was all its worth,
Yeah with you at her side,
And had a thousand dreams,
Iím beginning to like this scene,

|  ---------------------------------------- |
|  ---------------------------------------- |
|  --7-7-7-7-7-7-7-7-7-7-7-7-7-7-7-7-7-7-7- |
|  --7-7-7-7-7-7-7-7-7-7-7-7-7-7-7-7-7-7-7- |
|  --5-5-5-5-5-5-5-5-5-5-5-5-5-5-5-5-5-5-5- |
|  ---------------------------------------- |

I donít trust you, I donít trust you,
I donít trust you, I DONíT TRUST YOU.

Neways, I hope the tab is decent, please rate it and if you like Die!Die!Die! or youíve 
some suggestions then email me on jamesdonaldson@hot-shot.com

Cheers


www.myspace.com/diediedienz
www.diediedie.net
http://www.nzmusic.com/artist.cfm?i=817
http://www.amplifier.co.nz/artist/15705/die_die_die.html
Related for Shyness Will Get You Nowhere tab