Guitaretab - guitar tabs
Song name
# A B C D E F G H I J K L M N O P Q R S T U V W X Y Z

Die Die Die - Year Nine Yeah tab

-------------------------------------------------------------------------------
			 YEAR NINE, YEAH!  Die! Die! Die!
-------------------------------------------------------------------------------
Tabbed by: Benny Fury	
Email:

Tuning: Standard

Format to: Courier New, font size 6.

Intro
e|-000000000000000-0-0-0-0-0-0-0-0-0-0-0-0-0-0-0-0---------------------------|
B|-555555555555555/17171717171717171717171717171717\-------------------------|
G|---------------------------------------------------------------------------|
D|---------------------------------------------------------------------------|
A|---------------------------------------------------------------------------|
E|---------------------------------------------------------------------------|

e|-000000000000000-0-0-0-0-0-0-0-0-0-0-0-0-0-0-0-0---------------------------|
B|-555555555555555/17171717171717171717171717171717--------------------------|
G|---------------------------------------------------------------------------|
D|---------------------------------------------------------------------------|
A|---------------------------------------------------------------------------|
E|---------------------------------------------------------------------------|

Verse 1

Played when Andrew breaks from singing (those are 19s & 14s)
e|---------------------------------------------------------------------------|
B|---------------------------------------------------------------------------|
G|---------------------------------------------------------------------------|
D|---------------------------------------------------------------------------|
A|---------------------------------------------------------------------------|
E|-----1919191919191919-1414141414141414-------------------------------------|

e|---------------------------------------------------------------------------|
B|---------------------------------------------------------------------------|
G|---------------------------------------------------------------------------|
D|---------------------------------------------------------------------------|
A|---------------------------------------------------------------------------|
E|-----1919191919191919-1414141414141414-------------------------------------|

e|---------------------------------------------------------------------------|
B|---------------------------------------------------------------------------|
G|---------------------------------------------------------------------------|
D|---------------------------------------------------------------------------|
A|---------------------------------------------------------------------------|
E|-----1919191919191919-1414141414141414-------------------------------------|

Chorus 1

Same as the intro except not as fast, and the notes are strummed quite a few more times
e|-0000000000000000000000000-0-0-0-0-0-0-0-0-0-0-0-0-0-0-0-0-0-0-0-0-0-0-0---|
B|-5555555555555555555555555/1717171717171717171717171717171717171717171717\-|
G|---------------------------------------------------------------------------|
D|---------------------------------------------------------------------------|
A|---------------------------------------------------------------------------|
E|---------------------------------------------------------------------------|

e|-0000000000000000000000000-0-0-0-0-0-0-0-0-0-0-0-0-0-0-0-0-0-0-0-0-0-0-0---|
B|-5555555555555555555555555/1717171717171717171717171717171717171717171717--|
G|---------------------------------------------------------------------------|
D|---------------------------------------------------------------------------|
A|---------------------------------------------------------------------------|
E|---------------------------------------------------------------------------|

Verse 2

Identical to the first Verse.
[ Tab from: http://www.guitaretab.com/d/die-die-die/84545.html ]
e|---------------------------------------------------------------------------|
B|---------------------------------------------------------------------------|
G|---------------------------------------------------------------------------|
D|---------------------------------------------------------------------------|
A|---------------------------------------------------------------------------|
E|-----1919191919191919-1414141414141414-------------------------------------|

e|---------------------------------------------------------------------------|
B|---------------------------------------------------------------------------|
G|---------------------------------------------------------------------------|
D|---------------------------------------------------------------------------|
A|---------------------------------------------------------------------------|
E|-----1919191919191919-1414141414141414-------------------------------------|

e|---------------------------------------------------------------------------|
B|---------------------------------------------------------------------------|
G|---------------------------------------------------------------------------|
D|---------------------------------------------------------------------------|
A|---------------------------------------------------------------------------|
E|-----1919191919191919-1414141414141414-------------------------------------|

Chorus 2

e|-0000000000000000000000000-0-0-0-0-0-0-0-0-0-0-0-0-0-0-0-0-0-0-0-0-0-0-0---|
B|-5555555555555555555555555/1717171717171717171717171717171717171717171717\-|
G|---------------------------------------------------------------------------|
D|---------------------------------------------------------------------------|
A|---------------------------------------------------------------------------|
E|---------------------------------------------------------------------------|

e|-0000000000000000000000000-0-0-0-0-0-0-0-0-0-0-0-0-0-0-0-0-0-0-0-0-0-0-0---|
B|-5555555555555555555555555/1717171717171717171717171717171717171717171717--|
G|---------------------------------------------------------------------------|
D|---------------------------------------------------------------------------|
A|---------------------------------------------------------------------------|
E|---------------------------------------------------------------------------|

Outro

e|-0000000000000000000000000-0-0-0-0-0-0-0-0-0-0-0-0-0-0-0-0-0-0-0-0-0-0-0---|
B|-5555555555555555555555555/1717171717171717171717171717171717171717171717\-|
G|---------------------------------------------------------------------------|
D|---------------------------------------------------------------------------|
A|---------------------------------------------------------------------------|
E|---------------------------------------------------------------------------|

e|-0000000000000000000000000-0-0-0-0-0-0-0-0-0-0-0-0-0-0-0-0-0-0-0-0-0-0-0---|
B|-5555555555555555555555555/1717171717171717171717171717171717171717171717--|
G|---------------------------------------------------------------------------|
D|---------------------------------------------------------------------------|
A|---------------------------------------------------------------------------|
E|---------------------------------------------------------------------------|

e|-000--0-0-0---000--0-0-0---000--0-0-0---000--0-0-0-0-0-0-0-0-0-0-0---------|
B|-555/-171717\-555/-171717\-555/-171717\-555/-1717171717171717171717/-------|
G|---------------------------------------------------------------------------|
D|---------------------------------------------------------------------------|
A|---------------------------------------------------------------------------|
E|---------------------------------------------------------------------------|

e|-0-0-0-0-0---0-0-0-0-----0-------------------------------------------------|
B|-2020202020\-17171717----5-------------------------------------------------|
G|---------------------------------------------------------------------------|
D|---------------------------------------------------------------------------|
A|---------------------------------------------------------------------------|
E|---------------------------------------------------------------------------|

Finished.

| /  slide up
| \  slide down
| h  hammer-on
| p  pull-off
| ~  vibrato
| +  harmonic
| x  Mute note
===============================================================================

Related for Year Nine Yeah tab