Guitaretab - guitar tabs
Song name
# A B C D E F G H I J K L M N O P Q R S T U V W X Y Z

Die Die Die - Ashtray Ashtray tab

Die! Die! Die!
Ashtray! Ashtray!
Die! Die! Die! / Die! Die! Die!  EP

Intro riff.
|  --11-11-11-11-11-11-11-11-11-11-11-11-11--8-8-8-8-8-8-8-8--11--11--11--11--11- |
|  --12-12-12-12-12-12-12-12-12-12-12-12-12--9-9-9-9-9-9-9-9--12--12-12--12--12-- |
|  --10-10-10-10-10-10-10-10-10-10-10-10-10--7-7-7-7-7-7-7-7--10--10--10--10--10- |
|  ------------------------------------------------------------------------------ |
|  ------------------------------------------------------------------------------ |
|  ------------------------------------------------------------------------------ |
Itís basically a d-shape chord moved around cos Andrew is so fantastic he doesnít need 
bound by the laws of guitar.

Pre-chorus
|  --4-4-4-4-4-4--8-8-8-8-8-8--11-11-11-11-11-11-11-11-11-11- |
|  --5-5-5-5-5-5--9-9-9-9-9-9--10-10-10-10-10-10-10-10-10-10- |
|  --3-3-3-3-3-3--7-7-7-7-7-7--12-12-12-12-12-12-12-12-12-12- |
|  ---------------------------------------------------------- |
|  ---------------------------------------------------------- |
|  ---------------------------------------------------------- |
[ Tab from: http://www.guitaretab.com/d/die-die-die/85086.html ]
Chorus
|  -4-4-4-4-4-4-4-4-4-4--8-8-8-8-8-8-8-8-8-8-8--11-11-11-11-11-11-11-11-11-11-11-11-11- |
|  -5-5-5-5-5-5-5-5-5-5--9-9-9-9-9-9-9-9-9-9-9--12-12-12-12-12-12-12-12-12-12-12-12-12- |
|  -5-5-5-5-5-5-5-5-5-5--9-9-9-9-9-9-9-9-9-9-9--12-12-12-12-12-12-12-12-12-12-12-12-12- |
|  -3-3-3-3-3-3-3-3-3-3--7-7-7-7-7-7-7-7-7-7-7--10-10-10-10-10-10-10-10-10-10-10-10-10- |
|  ------------------------------------------------------------------------------------ |
|  ------------------------------------------------------------------------------------ |

This is only a guide as the strum is very fast.

Outro
|  --8-8---------------8-8--------------------8-8-----------------------8-8- |
|  --9-9---------------9-9--------------------9-9-----------------------9-9- |
|  --9-9---------------9-9--------------------9-9-----------------------9-9- |
|  --7-7---------------7-7--------------------7-7-----------------------7-7- |
|  ------------------------------------------------------------------------- |
|  ------------------------------------------------------------------------- |

Neways, I hope the tab is decent, please rate it and if you like Die!Die!Die! or youíve
some suggestions then email me on jamesdonaldson@hot-shot.com

Cheers
Related for Ashtray Ashtray tab