Song name
# A B C D E F G H I J K L M N O P Q R S T U V W X Y Z

Die Drogen - Guten Tag tab




Die Drogen - Guten Tag (Tabs & Chords)

Intro:
Ooh, oh-oh-ooh, oh-oh-ooh, oh-oh-ooh
h                fis             D    E        h
Ooh, oh-oh-ooh, oh-oh-ooh, oh-oh-ooh
h                fis             D    E        h


Intro Strophe:
--------------------------------------------------------|
--------------------------------------------------------|
--------------------4--------------------4--7--4--------|
------------4--7----------------4--7--------------------|
-----5-5-----------------5-5----------------------------|
--------------------------------------------------------|
     D            h      D             h

1. Strophe:
Sonntag morgen
D            h
Ich bin plötzlich wach
             D         h
  Ich will nicht aufstehen
D                   h
Was ist das für 'n Krach?
              D            h
  Es riecht nach Kaffee
D                       h
Auf dem Bett ein Slip
              D          h
  Das Radio spielt 'nen Hit
D                  h            D     h

Chorus:
  Die Sonne schreit mich an:
e                                   G
Guten Tag, guten Tag!
          D                A
  Ich bin noch gar nicht wach
e                                 G
Guten Tag!
           D

2. Strophe:
Gestern war Fete fett in diesem Haus
D                 h               D          h
  Viel weiß ich nicht mehr doch ich war gut drauf
D                       h                          D            h
  Ich schließ die Augen und erinner' mich
D                       h                   D      h
  Doch leider nicht an dich!
D                    h         D

Chorus:
  Die Sonne strahlt mich an:
e                                   G
Guten Tag, guten Tag!
          D                A
  Die Nacht war nicht sehr lang
e                                     G
Guten Tag, guten Tag!
h                         A
  Es ist doch erst halb acht
e                                G
Guten Tag, guten Tag!
h                         A
  Ich bin noch gar nicht wach
e                                  G
Guten

C-Teil:
Tag!
Ooh, oh-oh-ooh, oh-oh-ooh, oh-oh-ooh
h                fis             D    E        h
Ooh, oh-oh-ooh, oh-oh-ooh, oh-oh-ooh
h                fis             D    E        h
Ooh, oh-oh-ooh, oh-oh-ooh, oh-oh-ooh
h                fis             D    E        h

Oh, oh oh oh      Oh, oh oh oh
--------------------------------------------------------|
--------------------------------------------------------|
--------------------4--------------------4--7--4--------|
------------4--7----------------4--7--------------------|
-----5-5-----------------5-5----------------------------|
--------------------------------------------------------|
     D            h      D             h


Chorus:
  Susanne strahlt mich an:
e                                 G
Guten Tag, guten Tag!
          D                A
  Die Nacht war nicht sehr lang
e                                     G
Guten Tag, guten Tag!
h                         A
  Es ist erst kurz nach acht
e                                G
Guten Tag, guten Tag!
h                         A
  Ich bin jetzt endlich wach
e                                 G
Guten Tag!
     --------------------------------------------------------|
     --------------------------------------------------------|
     --------------------4--------------------4--7--4--------|
     ------------4--7----------------4--7--------------------|
     -----5-5-----------------5-5----------------------------|
     --------------------------------------------------------|
          D            h      D             h
Tap to rate this tab
# A B C D E F G H I J K L M N O P Q R S T U V W X Y Z