Song name
# A B C D E F G H I J K L M N O P Q R S T U V W X Y Z

Die Drogen - Du Bist Die Sonne tab

Die Drogen - Du Bist Die Sonne TABS

Tabs und Akkorde für Gitarren gestimmt auf D# (tiefe E-Saite). Akkorde
sind dementsprechend einen Halbton höher als auf der Aufnahme angesetzt.

Intro-Gitarre:

----5-5----5--5----5-5-------|
-5-------5--------5----------|
-----------------------------|
-----------------------------|
-----------------------------|
-----------------------------|

----5-5----5--5----5-5-------|
-6-------6--------6----------|
-----------------------------|
-----------------------------|
-----------------------------|
-----------------------------|

----7-7----7--7----7-7-------|
-8-------8--------8----------|
-----------------------------|
-----------------------------|
-----------------------------|
-----------------------------|

----7-7----7--7----7-7-------|
-9-------9--------9----------|
-----------------------------|
-----------------------------|
-----------------------------|
-----------------------------|

x 2 (selbe Gitarre Intro 2. Strophe und im Chorus)

dazu zweite Gitarre in der zweiten Runde:
(jeweils ganze Noten, Vibrato)

-5---10---12---12---------|
-5---10---12---12---------|
-5---10---12---13---------|
--------------------------|
--------------------------|
--------------------------|

Intro(x2):

a                 d                 G                 E
       Oh, oh, oh-oh           Oh, oh, oh-oh           Oh, oh, oh-oh           Oh, oh, oh-oh

Strophe:

                a
Du sagst du brauchst mich
          F
Trotzdem willst du’s nicht
              G
Du sagst für immer
           E
Trotzdem kannst du’s nicht
            a
Du bist so heiß
                     F
Doch du kannst nichts dafür
         G
Du willst allein sein
              E
Und du bist schon wieder hier

Chorus:

              a
Du bist die Sonne
        d
Und ich brauche dich
                   G
Doch komm nicht näher
           E
Sonst verbrennst du mich
              a
Du bist die Sonne
             d
Und du scheinst für mich
                  G
Doch wirst du heller
                 E
Dann machst du mich blind

Intro (s.o.)
Strophe 2:

             a
Du bist gefährlich
         F
Doch du weißt genau
                G
Wie du mich rumkriegst
            E
Wie du alles versaust
            a
Du bist so anders
            F
Immer wieder gleich
                  G
Die Schnauze voll
                     E
Doch du lässt mich nie wieder gehen

Chorus 2:

              a
Du bist die Sonne
        d
Und ich brauche dich
                   G
Doch komm nicht näher
           E
Sonst verbrennst du mich
              a
Du bist die Sonne
             d
Und du scheinst für mich
                  G
Doch wirst du heller
                 E
Dann machst du mich blind
              a          d
Du bist die Sonne, oh oh oh oh
             G          E
Du bist die Sonne, oh oh oh oh
              a          d
Du bist die Sonne, oh oh oh oh
             G          E
Du bist die Sonne, die Sonne

Bleiben auf a

Zwischenteil:

           a
Du bist gefährlich
         F
Doch du weißt genau
                G
Wie du mich rumkriegst
            E
Wie du alles versaust
            a
Du bist so anders
           F
Immer wieder gleich
                   G
Die Schnauze voll
                     E
Doch du lässt mich nie wieder gehen

Chorus 3:

              a
Du bist die Sonne
        d
Und ich brauche dich
                   G
Doch komm nicht näher
           E
Sonst verbrennst du mich
              a
Du bist die Sonne
             d
Und du scheinst für mich
                  G
Doch wirst du heller
                 E
Dann machst du mich blind
              a          d
Du bist die Sonne, oh oh oh oh
             G          E
Du bist die Sonne, oh oh oh oh
              a          d
Du bist die Sonne, oh oh oh oh
             G          E
Du bist die Sonne, die Sonne

Weiter mit Ohs und Chorusakkorden x2, Ende auf a.
Tap to rate this tab
 
# A B C D E F G H I J K L M N O P Q R S T U V W X Y Z