Song name
# A B C D E F G H I J K L M N O P Q R S T U V W X Y Z

Die Goldenen Zitronen - Diebe Sind Im Haus chords

Highlighted       Show chord diagrams
Diebe sind im Haus
==================
(Musik & Text: Gaier, Kamerun, Raabe, Sexfeind)
   A   E  C#m  G  Em   D  C#m'  G'   D'  Em'
E:-5-|-7-|-4-|-3-|-0-|-5-|-9--|-10-|-10-|-7-|
H:-5-|-9-|-5-|-3-|-0-|-7-|-9--|-12-|-10-|-8-|
G:-6-|-9-|-6-|-4-|-0-|-7-|-9--|-12-|-11-|-9-|
D:-7-|-9-|-6-|-5-|-2-|-7-|-11-|-12-|-12-|-9-|
A:-7-|-7-|-4-|-5-|-2-|-5-|-11-|-10-|-12-|-7-|
E:-5-|---|---|-3-|-0-|---|-9--|----|-10-|---|

A E A 

A
Ich kam eines Tages spät nach Haus.
    C#m                               E
Das Licht war an, die Tür stand auf.
A
Ich geh in mein Zimmer, ist die Freundin nicht da.
   C#m                                       E
Das Bett ist noch warm wo sie eben noch war.
               
G Em G Em              

C#m                 G                   D                   A
Diebe sind im Haus, Diebe sind im Haus, Diebe sind im Haus.   (2x)

Bass-Fill1:
G:-----------------|
D:-5-5-5-5-5-------|
A:-----------2-3-5-|
E:-----------------|

A
Der Fernseher ist weg, der Hund entführt,
     C#m                                       E
doch der hat sowieso nur die Nachbarn gestört.
A
Doch all das ist nur halb so schlimm.
   C#m                         E
Wo sind nur meine Platten hin?

G Em G Em

C#m                  G                            D                  A
Diebe sind im Haus - Pass auf, pass auf dich auf, Diebe sind im Haus   (2x)

G Em   A E A

C#m                 G                   D                   A
Diebe sind im Haus, Diebe sind im Haus, Diebe sind im Haus. 
C#m                  G                            D                  A
Diebe sind im Haus - Pass auf, pass auf dich auf, Diebe sind im Haus

C#m' G' D' Em' A

Em'-Fill:
G:---------------|
D:---------------|
A:-5-5--3-3--2-2-| (3x)
E:---------------|
Tap to rate this tab
 
# A B C D E F G H I J K L M N O P Q R S T U V W X Y Z