Die Heuwels Fantasties - Klein Tambotieboom tab

Hi this is my first tab
It is played in normal tuning, there is a few slides in between but didnt
 want to confuse u guys to much, if you listen to the song u will quickly
 pick them up, otherwise if u play it like this it will still sound awesome.


E---------------------------------------------------------------------------|
B-----------------------------8---10---12---10---8---10---12----------------|
G---------------7---7h9---7-------------------------------------------------|
D---5---7---9---------------------------------------------------------------|
A---------------------------------------------------------------------------|
E---------------------------------------------------------------------------|

E----------------------------------------------------------------------------|
B-12--10---------10--12--13--12--10--8--10--10--10h12--10--------------------|
G----------12b---------------------------------------------------------------|
D----------------------------------------------------------------------------|
A----------------------------------------------------------------------------|
E----------------------------------------------------------------------------|

E----------------------------------------------------------------------------|
B----------------------------------------------------------------------------|
G----------------7---7h9---7------7h9---9/11---9h11---9---7------------------|
D---5---7---9----------------------------------------------------------------|
A----------------------------------------------------------------------------|
E----------------------------------------------------------------------------|

E----------------------------------------------------------------------------|
B-10h12---10-------10---12---13---12---10---8---10---10h12---10--------8~~~~-|
G-------------12--------------------------------------------------12---------|
D----------------------------------------------------------------------------|
A----------------------------------------------------------------------------|
E----------------------------------------------------------------------------|

If you have any suggestions or corrections please feel free to email me at
zroode@gmail.com, although i doubt it coz its the only tab that i know is
on the internet so far lol, but im open to be corrected, and ill be glad to change 
it, enjoy the song.
I have a Youtube video where i play it if you
wana see it, might help a bit with the playing, go watch it at:
http://www.youtube.com/watch?v=qxkM7Wdh6Hc

Rate the tab honestly and feel free to comment, here and on youtube, happy
playing
Tap to rate this tab
 
# A B C D E F G H I J K L M N O P Q R S T U V W X Y Z