Song name
# A B C D E F G H I J K L M N O P Q R S T U V W X Y Z

Die Jugend Von Heute - Komm Doch Mit chords

Highlighted       Show chord diagrams
Interpret: Die Jugend von Heute
Titel:     Komm doch mit
Text:      Qukser
Komponist: Qukser
Infos:     www.facebook.de/DieJugendvonHeute


Intro/Riff:
  Bm                           Bm                                             
----------------------------|----------------------------|
----------------------------|----------------------------|
----------------------------|----------------------------|
----------------------------|----------------------------|
--------9--9--10--10--9--9--|--------9--9--10--10--9--9--|
--7--7----------------------|--7--7----------------------|

  A                            A
----------------------------|----------------------------|
----------------------------|----------------------------|
----------------------------|----------------------------|
----------------------------|----------------------------|
--------7--7--8---8---7--7--|--------7--7--8---8---7--7--|
--5--5----------------------|--5--5----------------------|

  Bm                           Bm
----------------------------|----------------------------|
----------------------------|----------------------------|
----------------------------|----------------------------|
-------------------------7--|--7-------------------------|
--------9--9--10--10--9-----|-----10--10---9---9--7---7--|
--7--7----------------------|----------------------------|

  A                            A
----------------------------|----------------------------|
----------------------------|----------------------------|
----------------------------|----------------------------|
----------------------------|----------------------------|
-------7--7--8---8---7--5h7-|----------------------------|
--5--5----------------------|----------------------------|


STROPHE:
Bm        
Ganz alleine lauf´ ich mit dir durch die Nacht,
A
sowas haben wir noch nie gemacht.
Bm
Die Atmosphäre irgendwie vertraut,
A
und dennoch hast du Gänsehaut.
Bm
Der grelle Mond macht die Straßen für uns hell,
A
aus der Ferne dringt leises Gebell.
Bm
Du hälst meine Hand in deiner ganz ganz fest,
A                          em
es ist so schön wie du sie hälst. 


CHORUS:
(em)                    D            G
Und ich frage dich noch einmal ob du glaubst,
          A             em
ob du mir grenzenlos vertraust.
                  D           G
Es ist Zeit, denn bevor alles zerfällt,
               A            Bm
nebm´ ich dich mit in meine Welt.


REFRAIN:
            G            A       
(Komm´ doch mit in meine Welt)
                        Bm
Komm´ doch mit in meine Welt
            G            A   
(Komm´ doch mit in meine Welt)
                                Bm
weil ohne dich mich hier nichts hält
           G  
(weil ohne dich, weil ohne dich)
           A        G
nicht mehr hält.

Intro/Riff:
Bm A Bm A


STROPHE:
Bm
Mein ganzen Leben schon begleitet mich der Drang,
A
ihn zu finden, den einen Notausgang,
Bm
aus den Fängen dieser infizierten Zeit.
A
Menschlicher Abfall weit und breit.
Bm
Ich hatte schon den tiefen Glauben abgelegt,
A
das sich irgendjemand auf mich zu bewegt.
Bm
Auf einmal da, kam ein Engel auf mich zu,
A
und dieser Engel der warst du!


CHORUS:
(em)                    D            G
Und ich frage dich noch einmal ob du glaubst,
          A             em
ob du mir grenzenlos vertraust.
                  D           G
Es ist Zeit, denn bevor alles zerfällt,
               A            Bm
nebm´ ich dich mit in meine Welt.


REFRAIN:
            G            A       
(Komm´ doch mit in meine Welt)
                        Bm
Komm´ doch mit in meine Welt
            G            A   
(Komm´ doch mit in meine Welt)
                                Bm
weil ohne dich mich hier nichts hält
           G  
(weil ohne dich, weil ohne dich)
           A        G
nicht mehr hält.


BRIDGE:
em                          D
Und wenn die Erde sich dann öffnet,
                          em
am aller jüngsten Tag der Zeit.
                           D
Bin ich der erste der dich rettet,
                      em
du und ich wir sind bereit.
                     D
Lichterloh in hellen Flammen,
                       em
ist es die Erde die zerfällt.
                     A
Ganz egal wir sind zusammen,
                    Bm
versteckt in meiner Welt.


REFRAIN:
    G                A       
(versteckt in meiner Welt)
                             Bm
drum Komm´ doch mit in meine Welt
            G            A   
(Komm´ doch mit in meine Welt)
                                Bm
weil ohne dich mich hier nichts hält
           G  
(weil ohne dich, weil ohne dich)
           A        G
nicht mehr hält.

Intro/Riff:
Bm A Bm
A G Bm
Tap to rate this tab
# A B C D E F G H I J K L M N O P Q R S T U V W X Y Z