Song name
# A B C D E F G H I J K L M N O P Q R S T U V W X Y Z

Die Kassierer - Das Leben Ist Ein Handschuh tab

-------------------------------------------------------------------------------
                 Das Leben ist ein Handschuh - Die Kassierer
-------------------------------------------------------------------------------
Tabbed by: Martin Messner
Email: bigbonsai@hotmail.de
This Song On Youtube: http://www.youtube.com/watch?v=YZkyBzDs_KQ

Tuning: E-Standard

//////////////////////////////////////////////
//                                          //
//  RATING THIS TAB TAKES ABOUT 5 SECONDS   //
//  AND HELPS ME TO IMPROVE MY WORK         //
//                                          //
//////////////////////////////////////////////

Intro(Choir)
e|----------------------------------------------------------------|
B|----------------------------------------------------------------|
G|----------------------------------------------------------------|
D|-------------------------7-7------------------------------------|
A|---7---------7-7---7-5-5-----7-7---7---------7-7---7-6---5------|
E|-----5-5-8-8-------------------------5-5-8-8-----------7---8-5--|

Bridge(Bass; Bass+Guitar)
G|---------------------------------------------------|
D|---------------------------------------------------|
A|---------------------------------------------------|
E|---5--3--1--0--5--3--1--0--5--3--1--0--5--3--1--0--|


G|---------------------------| -|
D|---------------------------|  |
A|---------------------------|  |
E|---5--3--1--0--5--3--1--0--|  |
                                |
                                |-
                                |-
e|-------12------12------12--|  |
B|----10-10---10-10---10-10--|  |
G|---------------------------|  |
D|---------------------------|  |
A|---------------------------|  |
E|---------------------------| -|


Chorus
e|------------------------------------------------------------------------|
B|---------------------------10-10----------------------------------------|
G|---9-----------9-9---9-7-7-------9-9---9-----------9-9---9s7-5-7-5-9----|
D|-----7-7-10-10---------------------------7-7-10-10----------------------|
A|------------------------------------------------------------------------|
E|------------------------------------------------------------------------|

e|------------------------------------------------------------------------|
B|---------------------------10-10----------------------------------------|
G|---9-----------9-9---9-7-7-------9-9---9-----------9-9---9-8---7--------|
D|-----7-7-10-10---------------------------7-7-10-10-----------9---10-7---|
A|------------------------------------------------------------------------|
E|------------------------------------------------------------------------|

PreChorus
e|------------------------------------------------|
B|------------------------------------------------|
G|-----6------------------------------------------|
D|---7---9-7-6----------------------9-8-----------|
A|-------------7-10-8-8---10-10--10-----10-8-7~---|
E|------------------------------------------------|


Verse
e|----------------------------------------------------------|
B|--(8)------8--8-8-6---6-8----------8-8-11-10h11-6h8-11~---|
G|---------9----------8------------9------------------------|
D|------10-------------------10-10--------------------------|
A|----------------------------------------------------------|
E|----------------------------------------------------------|

e|----------------------------------------------------------|
B|--8--------8--8-8-6---6-8---9-9--9-9-9-11-9-8-6-----------|
G|---------9----------8---------------------------8-7-------|
D|---10-10--------------------------------------------------|
A|----------------------------------------------------------|
E|----------------------------------------------------------|

Bridge 2a
e|--8---7---6---7---8---11----12~----|
B|----8---7---6---7---8----12--------|
G|-----------------------------------|
D|-----------------------------------|
A|-----------------------------------|
E|-----------------------------------|

Bridge 2b
e|------------------------------0-----------0--------|
B|---------------------------------------------------|
G|---------------------------------2-----------2-----|
D|---7--5--3--2--7--5--3--2--7--5--3--2--7--5--3--2--|
A|---------------------------------------------------|
E|---------------------------------------------------|


Bridge 3
e|---8------7-----8-----10----12------|
B|---10-----8-----10----10----10------|
G|---9------9-----9-----9-----9-------|
D|------------------------------------|
A|------------------------------------|
E|------------------------------------|
played as trills



Song(looks harder than it is ^^)

[Intro]
[Bridge]
[Chorus]
[PreChorus]
[Chorus]
[Verse]
[Verse]
[Chorus no Text]
[Bridge 2a]
[Bridge 2b]
[Verse]
[Chorus]
[PreChorus]
[Chorus]
[Brigde 3]
[Chorus]
[PreChorus]
[Chorus]

Lyrics:

[Chorus]
Das Leben ist ein Handschuh, ein unsichtbarer Handschuh. 
Das Leben ist ein Handschuh, der garnicht existiert ! 
Mal ist er weg, dann wieder nicht; das ist des Lebens Lauf. 
Du denkst, du kannst ihn sehen, doch dann frisst er dich auf. 

[Prechorus+Chorus]
Wenn du manches Mal auch traurig bist, dann sag´ dir einfach nur geschwind: 
Das Leben ist ein Handschuh, ein unsichtbarer Handschuh. 
Das Leben ist ein Handschuh, der garnicht existiert ! 

[Verse]
Ich grübelte oft Stunden, der Kopf tat mir schon weh. 
Woher ich eigentlich komme, wohin ich später geh´. 
Die Frage aller Fragen hat an mir genagt, 
Sooft hab´ ich mich gefragt, ja sooft habe ich mich gefragt ! 

[Verse]
Ich ging zum Dalai Lama, denn der war ja vom Fach. 
Er antwortete milde: "Fleck´ dich, gib´ fein acht. 
Die Antwort, die kennt jedes Kind, drum sei doch nicht verzagt !" 
Das hat der weise Mann gesagt, das hat der weise Mann zu mir gesagt. 

[Verse]
Dann kamen mir die Zweifel, mir kleinem Dummerjan, 
Ob das denn alles Richtig war; in voller Straßenbahn. 
Was ist der Sinn des Lebens ??? So hab´ ich laut gefragt. 
Da hat die Straßenbahn gesagt; da hat die ganze Starßenbahn gesagt: 

[Chorus]
Das Leben ist ein Handschuh, ein unsichtbarer Handschuh. 
Das Leben ist ein Handschuh, der garnicht existiert ! 
Mal ist er weg, dann wieder nicht; das ist des Lebens Lauf. 
Du denkst, du kannst ihn sehen, doch dann frisst er dich auf. 

[Prechorus+Chorus]
Wenn du manches Mal auch traurig bist, dann sag´ dir einfach nur geschwind: 
Das Leben ist ein Handschuh, ein unsichtbarer Handschuh. 
Das Leben ist ein Handschuh, der garnicht existiert ! 

http://www.youtube.com/watch?v=YZkyBzDs_KQ
Tap to rate this tab
# A B C D E F G H I J K L M N O P Q R S T U V W X Y Z