Guitaretab - guitar tabs
Song name
# A B C D E F G H I J K L M N O P Q R S T U V W X Y Z

Die Kassierer - Besoffen Sein tab

Die Kassierer  Besoffen sein (Album: Musik f?r beide Ohren)

INTRO
e ----------------------|
B ----------------------|
G ----------9-11--9-----|
D ---7-7-7--9-11--9-----|
A ---7-7-7--7--9--7-----|
E ---5-5-5--------------|

VERSE A
e -------------------------------------|
B -------------------------------------|
G --------------------------7-7-7-7----|
D --7-7-7-7-2-2-2-2-4-4-4-4-7-7-7-7----|
A --7-7-7-7-2-2-2-2-4-4-4-4-5-5-5-5----|
E --5-5-5-5-0-0-0-0-2-2-2-2------------|

VERSE B
e --------------------------------------|
B --------------------------------------|
G ---------------------------7--7--7----|
D --7-7-7-7-2-2-2-2-4-4-4-4--7--7--7----|
A --7-7-7-7-2-2-2-2-4-4-4-4--5--5--5----|
E --5-5-5-5-0-0-0-0-2-2-2-2-------------|

VERSE-END  (*) x 11
e --------|
B ----*---|
G ---9----|
D ---9----|
A ---7----|
E --------|

CHORUS
e ---------------------------------------|
B ---------------------------------------|
G ----------5-5-5-5----------------------|
D --7-7-7-7-5-5-5-5-3-3-3-3-5-5-5-5------|
A --7-7-7-7-3-3-3-3-3-3-3-3-5-5-5-5------|
E --5-5-5-5---------1-1-1-1-3-3-3-3------|


Order:
INTRO 2x
|:VERSE A
VERSE B
VERSE A 2x
VERSE-END 2x:|
CHORUS 4x
INTRO 2x
|:VERSE A
VERSE B
VERSE A 2x
VERSE-END 2x:|
CHORUS 4x
- ..besoffen, besoffen,..-
CHORUS 4x
INTRO 2x
VERSE A
VERSE B
VERSE A 2x
VERSE-END 2x
CHORUS 4x

note: |::| play twice!

[ Tab from: http://www.guitaretab.com/d/die-kassierer/25278.html ]
Related for Besoffen Sein tab