Song name
# A B C D E F G H I J K L M N O P Q R S T U V W X Y Z

Die Kassierer - Grosses Glied tab

Die Kassierer-Grosses Glied
It is an really easy song, but enjoy it...it s very funny
Tabbed by :Simonaldo
If you have any Questions...you can mail me... I_Love_Clerasil@yahoo.de


Stophe:
E|--------------------------------------|
H|--------------------------------------|
G|--------------------------------------|
D|--------------------------------------|
A|-3-3-3-3-3------------3-3-3-3-3-3-----|
E|------------3-3-3-3-3-----------------|
   pm...................................

E|--------------------------------------|
H|--------------------------------------|
G|--------------------------------------|
D|----------------------------------5---|
A|------------3-3-3-3-3-------------5---|
E|-1-1-1-1-1------------3-3-3-3-3-3-3---|
   pm..............................


Refrain:
E|--------------------------------------|
H|--------------------------------------|
G|---5----------------------------------|
D|---3------------5----------------5----|        Mein Glied ist zu groß du
A|----------------3---5------------3----|        du bist zu eng für mich
E|--------------------3-----------------|
Or you can play it like this:
E|--------------------------------------|
H|--------------------------------------|
G|---10---------------------------------|
D|---10----------10---5------------10---|
A|---8-----------10---5------------10---|
E|---------------8----3------------8----|
Tap to rate this tab
# A B C D E F G H I J K L M N O P Q R S T U V W X Y Z