Song name
# A B C D E F G H I J K L M N O P Q R S T U V W X Y Z

Die Lokalmatadore - Wir Hassen Die Ramones tab

Help us improve GuitareTab! Take a short survey!
Die Lokalmatadore - Wir hassen die Ramones
[ Armutszeugnisse 2004 ]

First tab of this band :D

so I have to post some links:

http://www.lokalmatadore.com/start.htm
http://en.wikipedia.org/wiki/Die_Lokalmatadore

__________


Just the tabs, you have to hear the right rythm.


Intro

E||------------------------|
B||------------------------|
G||------------------------|
D||--5---------------------|
A||--5---------------------|
E||--3---------------------|


Refrain / Strophe

E||------------------------|
B||------------------------|
G||------------5----7--5---|
D||--5----2----5----7--5---|
A||--5----2----3----5--3---|
E||--3----0----------------|


Bridge
   
E||--------------------------------|
B||--------------------------------|
G||-------------5-------------5----|
D||--5-5-5-5-5--5--3-3-3-3-3--5--5-|
A||--5-5-5-5-5--3--3-3-3-3-3--3--5-|
E||--3-3-3-3-3-----1-1-1-1-1-----3-|


Last Refrain

E||------------------------|
B||------------------------|
G||------------7----9--7---|
D||--7----4----7----9--7---|
A||--7----4----5----7--5---|
E||--5----2----------------|


Tabbed by me! :D

Have fun.
Related for Wir Hassen Die Ramones tab