Song name
# A B C D E F G H I J K L M N O P Q R S T U V W X Y Z

Die Lokalmatadore - Dicken Haufen Scheisse tab

Die Lokalmatadore - Dicken Haufen Scheiße
[ Männer Rock'n'Roll 2000 ]


Intro

E||-------------------------|
B||-------------------------|
G||--9-----9--7-----7-------|
D||--9--9--9--7--7--7--9----|
A||--7--9--7--5--7--5--9----|
E||-----7--------5-----7----|


Strophe

E||--------------------------|--------------------------|
B||--------------------------|--------------------------|
G||--9--9--9--9--9--9--7--9--|--5--5--5--5--------------|
D||--9--9--9--9--9--9--7--9--|--5--5--5--5--5--5--5--5--|
A||--7--7--7--7--7--7--5--7--|--3--3--3--3--5--5--5--5--|
E||--------------------------|--------------3--3--3--3--|


Refrain			  Refrain End
   
E||-------------------------|-----|
B||-------------------------|--0--|
G||--9-----9--7-----7-------|--1--|
D||--9--9--9--7--7--7--9----|--2--|
A||--7--9--7--5--7--5--9----|--2--|
E||-----7--------5-----7----|--0--|


Solo (Not sure about that)

E||---------------------------|---------------------------------|
B||---------------------------|---------------------------------|
G||--9--9--9--9--9--9-/12-/9--|--/14--14--14--14-/11--12--11--9-|
D||---------------------------|---------------------------------|
A||--7--7--7--7--7--7-/10-/7--|--/12--12--12--12-/9---10--9---7-|
E||---------------------------|---------------------------------|



Tabbed by me! :D

Have fun.
Tap to rate this tab
 
# A B C D E F G H I J K L M N O P Q R S T U V W X Y Z