Guitaretab - guitar tabs
Song name
# A B C D E F G H I J K L M N O P Q R S T U V W X Y Z

Die Mannequin - Near The End tab

Near The End  Die Mannequin
How To Kill, 2006/Unicorn Steak, 2008)
Drop D

Intro:
e----------------------------------------------|
b----------------------------------------------|
g----------------------------------------------|
d-0-2-22222-0-2-22222-0-2-22222-0-00000--------| 
a-0-2-22222-0-2-22222-0-2-22222-0-00000--------|
D-0-2-22222-0-2-22222-0-2-22222-0-00000--------|

e----------------------------------------------|
b----------------------------------------------|
g----------------------------------------------|
d-0-2-22222-0-2-22222-0-2-22222--0-------------| 
a-0-2-22222-0-2-22222-0-2-22222--0-------------|
D-0-2-22222-0-2-22222-0-2-22222--0-------------|

e-----------------------------------------------|
b-----------------------------------------------|
g-----------------------------------------------|
d-0--2-22222---2-22222---2-22222---0-00000------| 
a-0--2-22222---2-22222---2-22222---0-00000------|
D-0--2-22222--2-22222---2-22222---0-00000------|

e----------------------------------------------|
b----------------------------------------------|
g----------------------------------------------|
d-0--2-22222---2-22222---2-22222---0-00000-----| 
a-0--2-22222---2-22222---2-22222---0-00000-----|
D-0--2-22222--2-22222---2-22222---0-00000-----|


Verse
e--------------------------------|
b--------------------------------|
g--------------------------------|
d-2222222222222222222-0-000000---| x2
a-2222222222222222222-0-000000---|
D-2222222222222222222-0-000000---|

Pre-chorus
e------------------------------|
b------------------------------|
g------------------------------|
d-0-0-4-22-4-22-4-22-0---------| x2
a-0-0-4-22-4-22-4-22-0---------|
D-0-0-4-22-4-22-4-22-0---------|


Chorus
e------------------------------|
b------------------------------|
g------------------------------|
d-99-555-77-22--99-555-7---22--|
a-99-555-77-22--99-555-7---22--|
D-99-555-77-22--99-555-7---22--|

e------------------------------|
b------------------------------|
g------------------------------|
d-99-555-77-22--99-555-7-------|
a-99-555-77-22--99-555-7-------|
D-99-555-77-22--99-555-7-------|

Intro part
e-----------------------------------------------|
b-----------------------------------------------|
g-----------------------------------------------|
d-0--2-22222---2-22222---2-22222---0-00000------| 
a-0--2-22222---2-22222---2-22222---0-00000------|
D-0--2-22222--2-22222---2-22222---0-00000------|


Verse
e--------------------------------|
b--------------------------------|
g--------------------------------|
d-2222222222222222222-0-000000---| x2
a-2222222222222222222-0-000000---|
D-2222222222222222222-0-000000---|
[ Tab from: http://www.guitaretab.com/d/die-mannequin/113362.html ]
Pre-chorus
e------------------------------|
b------------------------------|
g------------------------------|
d-0-0-4-22-4-22-4-22-0---------| x2
a-0-0-4-22-4-22-4-22-0---------|
D-0-0-4-22-4-22-4-22-0---------|

Chorus
e------------------------------|
b------------------------------|
g------------------------------|
d-99-555-77-22--99-555-7---22--|
a-99-555-77-22--99-555-7---22--|
D-99-555-77-22--99-555-7---22--|

e------------------------------|
b------------------------------|
g------------------------------|
d-99-555-77-22--99-555-7-------|
a-99-555-77-22--99-555-7-------|
D-99-555-77-22--99-555-7-------|



Bridge
e-----------------------------|
b-----------------------------|
g-----------------------------|
d-444444440-3330333-0---------|  x2
a-4444444403330333-0---------|
D-4444444403330333-0---------|

Pre-chorus
e------------------------------|
b------------------------------|
g------------------------------|
d-0-0-4-22-4-22-4-22-0---------| x2
a-0-0-4-22-4-22-4-22-0---------|
D-0-0-4-22-4-22-4-22-0---------|


Pre-chorus- hit one string only
e------------------------------|
b------------------------------|
g------------------------------|
d------------------------------| x6
a------------------------------|
D-0-0-4-22-4-22-4-22-0---------|


Chorus
e------------------------------|
b------------------------------|
g------------------------------|
d-99-555-77-22--99-555-7---22--|
a-99-555-77-22--99-555-7---22--|
D-99-555-77-22--99-555-7---22--|

e------------------------------|
b------------------------------|
g------------------------------|
d-99-555-77-22--99-555-7-------|
a-99-555-77-22--99-555-7-------|
D-99-555-77-22--99-555-7-------|


Chorus
e------------------------------|
b------------------------------|
g------------------------------|
d-99-555-77-22--99-555-7---22--|
a-99-555-77-22--99-555-7---22--|
D-99-555-77-22--99-555-7---22--|

e------------------------------|
b------------------------------|
g------------------------------|
d-99-555-77-22--99-555-7-------|
a-99-555-77-22--99-555-7-------|
D-99-555-77-22--99-555-7-------|
Outro
e-----------------------------------------------|
b-----------------------------------------------|
g-----------------------------------------------|
d-0--2-22222---2-22222---2-22222---0-00000------| x2
a-0--2-22222---2-22222---2-22222---0-00000------|
D-0--2-22222--2-22222---2-22222---0-00000------|

Outro
e--------------------------------------------------|
b--------------------------------------------------|
g--------------------------------------------------|
d-0--2-22222---2-22222---2-22222---2-22222---222-| x2
a-0--2-22222---2-22222---2-22222---2-22222---222-|
D-0--2-22222--2-22222---2-22222---2-22222---222-|


Flashlights_4_wimps@hotmail.com
Related for Near The End tab