Song name
# A B C D E F G H I J K L M N O P Q R S T U V W X Y Z

Die Mannequin - Autumn Cannibalist tab

Highlighted       Show chord diagrams
Die Mannequin
Autumn Cannibalist
Submitted by: paramore_fans@yahoo.com

Key: C then Eb

Tuning: Standard EADGBe

Chords used:
F -   133211
C -   x32010
Eb -  x68886
Fm -  133111
Cm -  x35543
Bb -  x13331
G# -  466544
C# -  x46664


Intro:
                             F
e|----------------------------------------------------------|
B|----------------------------------------------------------|
G|----------------------------------------------------------|
D|--------------------------------------------------------5-|
A|-2-2-2-2-2-3--2--3--2--3--2--2-2-2-2-2-2-3--2--3--2--3--3-|
E|-1-1-1-1-1-1--1--1--1--1--1--1-1-1-1-1-1-1--1--1--1--1----|

                          C
e|----------------------------------------------------|
B|----------------------------------------------------|
G|------------------------3--3-0----------------------|
D|-4-4-4-4-5--4--5--4--5--x--x-x-2-4-2--4--2--4--2--4-|
A|-3-3-3-3-3--3--3--3--3--3--3-3-3-3-3--3--3--3--3--3-|
E|----------------------------------------------------|


Verse 1: Do Intro Pattern
  F
I dont know what I want
I dont know where I stand
   C
between another man
I know but how about you
       G#
I dont know what I want
 so baby believe me
       Fm
do you want to go
no no doll I know
    C
but how about you
but how about you


Chorus 1:
Fm        G#
  too bad darling now its
Eb                   Fm
done Im dragging you down
take it all night baby we
G#
tried for so long
        Eb
now its done
                Fm
Im dragging you down

I dont know where I
          C            F
stand now how about you
            C
I stand now how about you


Verse 2:
            F
I dont know what I want
I dont know where I stand
         C
between another man darling
coz now how about you
            G#
I dont know what I want
so baby believe me
       Fm
do you want to know
no no doll I know
    C
now how bout you
I know now
how bout you


Chorus 2:
Fm        G#
  too bad darling now its
Eb                   Fm
done Im dragging you down
take it all night baby we
G#
tried for so long
        Eb
now its done
                Fm
Im dragging you down

I dont know where I
          C            F
stand now how about you
            C
I stand now how about you
             G#
I don't know what I want
               Bb
baby believe I wanna go
no no no no


Interlude: C---- x4


Bridge:
        Fm
I have enough of you
        Eb
I have enough of you
        C#
I have enough of you
        Cm
I have enough of you


(Repeat Chorus 2)
Tap to rate this tab
# A B C D E F G H I J K L M N O P Q R S T U V W X Y Z