Song name
# A B C D E F G H I J K L M N O P Q R S T U V W X Y Z

Die Mannequin - Miss Americvnt tab

Band: Die Mannequin
Song: Miss Americvnt
Album: Fino + Bleed
Guitarist: Care Failure

Tabbed by Ben Doyon aka. Xnay
Comments to xnaysaturo@gmail.com

E Standard Tuning
E-A-D-G-B-e

p = Pull off
* = Natural Harmonic
\ = Slide Down

Intro
e|----------------------------------|
B|----------------------------------|
G|----------------------------------|
D|----------------------------------|
A|----------------------------------|
E|-12\-0-0-5p0-0-7p0-0-10p0-0-12-12-|

e|------------------------------|
B|------------------------------|
G|------------------------------|
D|------------------------------| x6
A|------------------------------|
E|-0-0-5p0-0-7p0-0-10p0-0-12-12-|

e|---------------------------|
B|---------------------------|
G|---------------------------|
D|---------------------------| 
A|---------------------------|
E|-0-0-00-3*-3*3*-3*-3*-3333-|

Verse

I'll be there when the light goes off
As long as it's all about me
So proudly we fail forever
It just trips and fades away

e|------------------------------------------------------------------------------------|
B|------------------------------------------------------------------------------------|
G|------------------------------------------------------------------------------------|
D|------------------------------------------------------------------------------------| x2
A|------------------------------------------------------------------------------------|
E|-0-0-0-00-00-3333---0-0-0-00-00-2222---0-0-0-00-00-3333---0-0-3*-3*3*-3*3*-3*3*3*3*-|

Prechorus

You're no good
If it's not me

e|---------------------|
B|-1----1----1----4----|
G|-0----2----0----4----|
D|-2----2----2----4----| 
A|-3----0----3----2----|
E|---------------------|

Chorus

Then it's you
And you thank no one
Miss Americunt
You
Violence had no son
Miss Americunt
And it's you, yeah, it's you

e|-0-------------------------|
B|-0----3----3----1-----1----|
G|-0----2----2----2-----2----|
D|-2----x----0----2-----2----| x2
A|-2----0----0----0-----0----|
E|-0----2----3-------3-------|

e|-----------|
B|-1----1----|
G|-0----2----|
D|-2----2----| 
A|-3----0----|
E|-----------|

e|-0--------2--------|
B|-0--1--4--3--1--4--|
G|-0--0--4--2--0--4--|
D|-2--2--4--0--2--4--| 
A|-2--3--2-----3--2--|
E|-0-----------------|

e|-0-----2-----------3--|
B|-0--1--3--4--3--2--3--|
G|-0--0--2--4--3--2--2--|
D|-2--2--0--4--3--2--0--| 
A|-2--3-----2--1--0-----|
E|-0--------------------|

Verse x1
For this verse, the riff is similar to the first verse, but with more harmonics added.
Just listen to the song for the right timing.

I'll be there like the rest of them
In your fire, your highs, and your stripes
New wave Miss Americunt
In a new wave spangled fight

Chorus 2

If it's not me, than it's you
And you blame no one
Miss Americunt
You
Violoence had no son
Miss Americunt
And it's you, yeah it's you

e|-0-------------------------|
B|-0----3----3----1-----1----|
G|-0----2----2----2-----2----|
D|-2----x----0----2-----2----| x2
A|-2----0----0----0-----0----|
E|-0----2----3-------3-------|

e|-----------|
B|-1----1----|
G|-0----2----|
D|-2----2----| 
A|-3----0----|
E|-----------|

Bridge
Here are the chords for the bridge section, but some more notes are played.
When the Em chord happens, play around with the notes from the intro riff,
check out the song for the exact timing.

It's always about the hate exhange
To call my name
And it's always about
The proud mistakes
And the back lit blame

I'll kill them if they kill us
When everything hurts
And everyone else
Says give it to me
But nothing helps
I can't live with all this hate

e|-0----0----0----0----0--0--0--2--0--0--0--0--0--2--|
B|-1----0----1----0----1--1--1--3--0--1--1--1--1--4--|
G|-2----0----2----0----0--2--0--2--0--0--2--0--2--4--|
D|-2----2----2----2----2--2--2--0--2--2--2--2--2--4--| 
A|-0----2----0----2----3--0--3-----2--3--0--3--0--2--|
E|------0---------0----------------0-----------------|

Chorus x1

And it's you
And you thank no one
Miss Americunt
You
Violence had no son
Miss Americunt

And it's you, and it's you
And you blame no one
Miss Americunt
You
Violence had no son
Miss Americunt
And it's you, yeah, it's you

Outro

One kill for every pill
One kill for every pill
One kill for every pill

e|-0--------2--------|
B|-0--1--4--3--1--4--|
G|-0--0--4--2--0--4--|
D|-2--2--4--0--2--4--| 
A|-2--3--2-----3--2--|
E|-0-----------------|

e|-0-----2-----------3--|
B|-0--1--3--4--3--2--3--|
G|-0--0--2--4--3--2--2--|
D|-2--2--0--4--3--2--0--| 
A|-2--3-----2--1--0-----|
E|-0--------------------|

e|-0----|
B|-0----|
G|-0----|
D|-2----| Let ring
A|-2----|
E|-0----|
Tap to rate this tab
# A B C D E F G H I J K L M N O P Q R S T U V W X Y Z