Song name
# A B C D E F G H I J K L M N O P Q R S T U V W X Y Z

Die Mannequin - Dead Honey tab

Tuning          Dead Honey - Die Mannequin - Fino + Bleed
D --------|
A --------|
F --------|
C --------|
G --------|
D --------|

Verse 1
---------------------------------- --------------------------------|
---------------------------------- --------------------------------|
5-7777777777777777---------------- 7777777777777777----------------|
5-77777777777777778888888888888888 77777777777777778888888888888888|
3-55555555555555558888888888888888 55555555555555558888888888888888|
------------------6666666666666666 ----------------6666666666666666|
  pm****************************** ********************************

Verse 2
-------------------------------- --------------------------------|
-------------------------------- --------------------------------|
7777777777777777---------------- 7777777777777777----------------|
77777777777777778888888888888888 77777777777777778888888888888888|
55555555555555558888888888888888 55555555555555558888888888888888|
----------------6666666666666666 ----------------6666666666666666|
pm****************************** ********************************

Pre-Chorus 1
-------------------------------- --------------------------------|
-------------------------------- --------------------------------|
7777777777777777---------------- --------------------------------|
77777777777777778888888888888888 5555555555555555888888888-------|
55555555555555558888888888888888 5555555555555555888888888-------|
----------------6666666666666666 3333333333333333666666666-------|
pm****************************** *************************

Chorus 1
-------------------------------- --------------------------------|
-------------------------------- --------------------------------|
77777777------------------------ 77777777------------------------|
77777777777777778888888855555555 77777777777777778888888855555555|
55555555777777778888888855555555 55555555777777778888888855555555|
--------555555556666666633333333 --------555555556666666633333333|

-------------------------------- --------------------------------|
-------------------------------- --------------------------------|
-------------------------------- --------------------------------|
33333333555555558888888855555555 8888888855555555----------------|
33333333555555558888888855555555 8888888855555555----------------|
11111111333333336666666633333333 6666666633333333----------------|

Verse 3
-------------------------------- ---------------------------------|
-------------------------------- ---------------------------------|
5--------------7---------------- 7777777777777777-----------------|
5--------------78888888888888888 77777777777777778888888888888888-|
3--------------58888888888888888 55555555555555558888888888888888-|
----------------6666666666666666 ----------------6666666666666666-|
                pm************** ********************************

Verse 4
-------------------------------- --------------------------------|
-------------------------------- --------------------------------|
7777777777777777---------------- 7777777777777777----------------|
77777777777777778888888888888888 77777777777777778888888888888888|
55555555555555558888888888888888 55555555555555558888888888888888|
----------------6666666666666666 ----------------6666666666666666|
pm****************************** ********************************

Pre-Chorus 2
-------------------------------- --------------------------------|
-------------------------------- --------------------------------|
7777777777777777---------------- --------------------------------|
77777777777777778888888888888888 5555555555555555888888888-------|
55555555555555558888888888888888 5555555555555555888888888-------|
----------------6666666666666666 3333333333333333666666666-------|
Chorus 2
-------------------------------- --------------------------------|
-------------------------------- --------------------------------|
77777777------------------------ 77777777------------------------|
77777777777777778888888855555555 77777777777777778888888855555555|
55555555777777778888888855555555 55555555777777778888888855555555|
--------555555556666666633333333 --------555555556666666633333333|

-------------------------------- --------------------------------|
-------------------------------- --------------------------------|
-------------------------------- --------------------------------|
33333333555555558888888855555555 8888888855555555----------------|
33333333555555558888888855555555 8888888855555555----------------|
11111111333333336666666633333333 6666666633333333----------------|

Middle Eight
-------------------------------- --------------------------------|
-------------------------------- --------------------------------|
-------------------------------- --------------------------------|
8-------5-------12-------------- 8-------5-------3---------------|
8-------5-------12-------------- 8-------5-------3---------------|
6-------3-------10-------------- 6-------3-------1---------------|

Instrumental Solo
-------------------------------- --------------------------------|
-------------------------------- --------------------------------|
-------------------------------- --------------------------------|
-------------------------------- --------------------------------|
-------------------------------- --------------------------------|
6-------3-------10-------------- 6-------3-----------------------|
TPx16   TPx16   TPx32            TPx16   TPx32

Chorus 3
-------------------------------- --------------------------------|
-------------------------------- --------------------------------|
77777777------------------------ 77777777------------------------|
77777777777777778888888855555555 77777777777777778888888855555555|
55555555777777778888888855555555 55555555777777778888888855555555|
--------555555556666666633333333 --------555555556666666633333333|

--------------------------------|
--------------------------------|
--------------------------------|
33333333555555558888888855555555|
33333333555555558888888855555555|
11111111333333336666666633333333|

Outro
-------------------------------- --------------------------------|
-------------------------------- --------------------------------|
-------------------------------- --------------------------------|
88888888555555558888888855555555 88888888555555558888888-5-------|
88888888555555558888888855555555 88888888555555558888888-5-------|
66666666333333336666666633333333 66666666333333336666666-3-------|



pm***       Palm Mute
TP    Tremolo Picking
Tap to rate this tab
 
# A B C D E F G H I J K L M N O P Q R S T U V W X Y Z