Song name
# A B C D E F G H I J K L M N O P Q R S T U V W X Y Z

Die Mannequin - Near The End tab

         Near The End - Die Mannequin - Unicorn Steak

Tabbed by: MCfromTMP

D Tuning

Intro
Rhythm   (0:00)
D|--------------------------------------------------------------|
A|--------------------------------------------------------------|
F|--------------------------------------------------------------|
C|4-4-4-4-4-4-4---4-4-4-4-4-4-4---4-4-4-4-4-4-4---2-2-2-2-2-2-2-|
G|4-4-4-4-4-4-4---4-4-4-4-4-4-4---4-4-4-4-4-4-4---2-2-2-2-2-2-2-|
D|2-2-2-2-2-2-2---2-2-2-2-2-2-2---2-2-2-2-2-2-2---0-0-0-0-0-0-0-|
  * * *   * *     * * *   * *     * * *   * *     * * *   * *   

Rhythm   (0:06)
D|--------------------------------------------------------------|
A|--------------------------------------------------------------|
F|--------------------------------------------------------------|
C|4-4-4-4-4-4-4---4-4-4-4-4-4-4---4-4-4-4-4-4-4-4-2~------------|
G|4-4-4-4-4-4-4---4-4-4-4-4-4-4---4-4-4-4-4-4-4-4-2~------------|
D|2-2-2-2-2-2-2---2-2-2-2-2-2-2---2-2-2-2-2-2-2-2-0~------------|
  * * *   * *     * * *   * *     * * *   * *   *    

Lead     (0:06)
D|------------------------------------------------0~------------|
A|------------------------------------------------0~------------|
F|------2-----2---------2-----2---------2-----2---1~------------|
C|----4---4-4---------4---4-4---------4---4-4---4-2~------------|
G|------------------------------------------------2~------------|
D|2-2-------------2-2-------------2-2-------------0~------------|

Rhythm   (0:12)
D|--------------------------------------------------------------|
A|--------------------------------------------------------------|
F|--------------------------------------------------------------|
C|4~--4-4-4-4-4---4~--4-4-4-4-4---4~--4-4-4-4-4---2~-2-2-2~-2-2-|    x2
G|4~--4-4-4-4-4---4~--4-4-4-4-4---4~--4-4-4-4-4---2~-2-2-2~-2-2-|
D|2~--2-2-2-2-2---2~--2-2-2-2-2---2~--2-2-2-2-2---0~-0-0-0~-0-0-|

Lead     (0:12)
D|------------------------------------------------0~-0-0-0~-0-0-|
A|------------------------------------------------0~-0-0-0~-0-0-|
F|----------------------2-----2---------2-----2---1~-1-1-1~-1-1-|
C|4~--4-4-4-4-4-------4---4-4---------4---4-4-----2~-2-2-2~-2-2-|    x2
G|4~--4-4-4-4-4-----------------------------------2~-2-2-2~-2-2-|
D|2~--2-2-2-2-2---2~--------------2~--------------0~-0-0-0~-0-0-|

Verse 1
(0:25)
  I only disappoint you           You only disappoint yourself
  I know I cant control you       You know I can't control myself  
D|-------------------------------------------------------------|
A|-------------------------------------------------------------|
F|-------------------------------------------------------------|
C|4-4-4-4-4-4-4-4-4-4-4-4-4-4-4-4-4-4-4-4-4-4-4-0~-0-0-0~-0-0~-|    x2
G|4-4-4-4-4-4-4-4-4-4-4-4-4-4-4-4-4-4-4-4-4-4-4-0~-0-0-0~-0-0~-|
D|2-2-2-2-2-2-2-2-2-2-2-2-2-2-2-2-2-2-2-2-2-2-2-0~-0-0-0~-0-0~-|
  * * * * * * * * * * * * * * * * * * * * 

Pre Chorus 1
(0:36)
                                I'm over my head, in and out I'm ahead, tell me why 
D|------------------------------------------------------------------|
A|------------------------------------------------------------------|
F|------------------------------------------------------------------|
C|4-6-4-4~--6-4-4~--6-4-4~--4-4-2-2-6-4-4~--6-4-4~--6-4-4~--4-4-4-4-|
G|4-6-4-4~--6-4-4~--6-4-4~--4-4-2-2-6-4-4~--6-4-4~--6-4-4~--4-4-4-4-|
D|2-4-2-2~--4-2-2~--4-2-2~--2-2-0-0-4-2-2~--4-2-2~--4-2-2~--2-2-2-2-|

Chorus 1 
(0:43)
  What are you waiting for   I don't want to know, but I'm already there, and again 
D|------------------------  -------------------------|
A|------------------------  -------------------------|
F|6~---4~--2-2-4~-4-4-----  -6~---4~--2-2-4~-4-4-----|
C|6~---4~--2-2-4~-4-4-4-4-  -6~---4~--2-2-4~-4-4-4-4-|
G|4~---2~--0-0-2~-2-2-4-4-  -4~---2~--0-0-2~-2-2-4-4-|
D|--------------------2-2-  ---------------------2-2-|

(0:49)
  I don't know myself        I don't want to know, but I'm already near 
D|------------------------  -------------------------|
A|------------------------  -------------------------|
F|6~---4~--2-2-4~-4-4-----  -6~---4~--2-2-4~-4-4-----|
C|6~---4~--2-2-4~-4-4-4-4-  -6~---4~--2-2-4~-4-4-----|
G|4~---2~--0-0-2~-2-2-4-4-  -4~---2~--0-0-2~-2-2-----|
D|--------------------2-2-  -------------------------|

Rhythm   (0:55)
  the end
D|--------------------------------------------------------------|
A|--------------------------------------------------------------|
F|--------------------------------------------------------------|
C|4~--4-4-4-4-4---4~--4-4-4-4-4---4~--4-4-4-4-4---2~-2-2-2~-2-2-|
G|4~--4-4-4-4-4---4~--4-4-4-4-4---4~--4-4-4-4-4---2~-2-2-2~-2-2-|
D|2~--2-2-2-2-2---2~--2-2-2-2-2---2~--2-2-2-2-2---0~-0-0-0~-0-0-|

Lead     (0:55)
D|------------------------------------------------0~-0-0-0~-0-0-|
A|------------------------------------------------0~-0-0-0~-0-0-|
F|----------------------2-----2---------2-----2---1~-1-1-1~-1-1-|
C|4~--4-4-4-4-4-------4---4-4---------4---4-4-----2~-2-2-2~-2-2-|
G|4~--4-4-4-4-4-----------------------------------2~-2-2-2~-2-2-|
D|2~--2-2-2-2-2---2~--------------2~--------------0~-0-0-0~-0-0-|

Verse 2
(1:01)
  I have a curse because of you   I have a curse upon myself 
D|-------------------------------------------------------------|
A|-------------------------------------------------------------|
F|-------------------------------------------------------------|
C|4-4-4-4-4-4-4-4-4-4-4-4-4-4-4-4-4-4-4-4-4-4-4-0~-0-0-0~-0-0~-|
G|4-4-4-4-4-4-4-4-4-4-4-4-4-4-4-4-4-4-4-4-4-4-4-0~-0-0-0~-0-0~-|
D|2-2-2-2-2-2-2-2-2-2-2-2-2-2-2-2-2-2-2-2-2-2-2-0~-0-0-0~-0-0~-|
  * * * * * * * * * * * * * * * * * * * * 

(1:07)
 I'm going to reach and pull you  I'm going to make you hate yourself 
D|-------------------------------------------------------------|
A|-------------------------------------------------------------|
F|-------------------------------------------------------------|
C|4-4-4-4-4-4-4-4-4-4-4-4-4-4-4-4-4-4-4-4-4-4-4-0~-0-0-0~-0-0~-|
G|4-4-4-4-4-4-4-4-4-4-4-4-4-4-4-4-4-4-4-4-4-4-4-0~-0-0-0~-0-0~-|
D|2-2-2-2-2-2-2-2-2-2-2-2-2-2-2-2-2-2-2-2-2-2-2-0~-0-0-0~-0-0~-|
  * * * * * * * * * * * * * * * * 

Pre Chorus 2
(1:13)
                                I'm over my head, in and out I'm ahead, tell me why 
D|------------------------------------------------------------------|
A|------------------------------------------------------------------|
F|------------------------------------------------------------------|
C|4-6-4-4~--6-4-4~--6-4-4~--4-4-2-2-6-4-4~--6-4-4~--6-4-4~--4-4-4-4-|
G|4-6-4-4~--6-4-4~--6-4-4~--4-4-2-2-6-4-4~--6-4-4~--6-4-4~--4-4-4-4-|
D|2-4-2-2~--4-2-2~--4-2-2~--2-2-0-0-4-2-2~--4-2-2~--4-2-2~--2-2-2-2-|

Chorus 2 
(1:19)
  What are you waiting for   I don't want to know, but I'm already there, and again 
D|------------------------  -------------------------|
A|------------------------  -------------------------|
F|6~---4~--2-2-4~-4-4-----  -6~---4~--2-2-4~-4-4-----|
C|6~---4~--2-2-4~-4-4-4-4-  -6~---4~--2-2-4~-4-4-4-4-|
G|4~---2~--0-0-2~-2-2-4-4-  -4~---2~--0-0-2~-2-2-4-4-|
D|--------------------2-2-  ---------------------2-2-|

(1:25)
  I don't know myself        I don't want to know, but I'm already near 
D|------------------------  -------------------------|
A|------------------------  -------------------------|
F|6~---4~--2-2-4~-4-4-----  -6~---4~--2~-2--4~-4-----|
C|6~---4~--2-2-4~-4-4-4-4-  -6~---4~--2~-2--4~-4-----|
G|4~---2~--0-0-2~-2-2-4-4-  -4~---2~--0~-0--2~-2-----|
D|--------------------2-2-  -------------------------|

Bridge 1   (1:31)
  I know, I know I'm not myself  I'm not myself I'm not myself
  I know I can't control you     But are you okay when I'm alright
  I know, I know I'm not myself  I'm not myself I'm not myself
  I know I can't control you     But are you okay when I'm alright
D|--------------------------------|
A|--------------------------------|
F|--------------------------------|
C|6-6-6-6-6-6-2-2-5-5-5-5-6-6-2-2-|    x4
G|6-6-6-6-6-6-2-2-5-5-5-5-6-6-2-2-|
D|4-4-4-4-4-4-0-0-3-3-3-3-4-4-0-0-|

Pre Chorus 3
(1:44)
                            Alright                         Alright!
D|---------------------------------------------------------------|
A|---------------------------------------------------------------|
F|---------------------------------------------------------------|
C|4-6-4-4~--6-4-4~--6-4-4~--4-4-2-2-6-4-4~--6-4-4~--6-4-4~--4-4--|
G|4-6-4-4~--6-4-4~--6-4-4~--4-4-2-2-6-4-4~--6-4-4~--6-4-4~--4-4--|
D|2-4-2-2~--4-2-2~--4-2-2~--2-2-0-0-4-2-2~--4-2-2~--4-2-2~--2-2--|

Bridge 2 
(1:49)
I'm over my head in and out, I'm ahead
I'm over my head in and out in your head
I'm over my head in and out, I'm ahead
D|-----------------------------|
A|-----------------------------|
F|-----------------------------|
C|-----------------------------|    x5
G|-----------------------------|
D|0-0-4-2-2~-4-2-2~-4-2-2~-2-2-|

(2:05)
I'm over your head in and out, I'm ahead, tell me why
D|---------------------------------|
A|---------------------------------|
F|---------------------------------|
C|-----------------------------2-2-|
G|-----------------------------2-2-|
D|0-0-4-2-2~-4-2-2~-4-2-2~-2-2-0-0-|

Chorus 3 
(2:08)
  What are you waiting for   I don't want to know but I'm already there, and again 
  I don't know myself        I don't want to know but I'm already near, tell me why 
  What are you waiting for   I don't want to know but I'm already there, and again 
D|------------------------  -------------------------|
A|------------------------  -------------------------|
F|6~---4~--2-2-4~-4-4-----  -6~---4~--2-2-4~-4-4-----|
C|6~---4~--2-2-4~-4-4-4-4-  -6~---4~--2-2-4~-4-4-4-4-|    x3
G|4~---2~--0-0-2~-2-2-4-4-  -4~---2~--0-0-2~-2-2-4-4-|
D|--------------------2-2-  ---------------------2-2-|

(2:26)
  I don't know myself        I don't want to know but I'm already near
D|------------------------  -------------------------|
A|------------------------  -------------------------|
F|6~---4~--2-2-4~-4-4-----  -6~---4~--2~-2--4~-4-----|
C|6~---4~--2-2-4~-4-4-4-4-  -6~---4~--2~-2--4~-4-----|
G|4~---2~--0-0-2~-2-2-4-4-  -4~---2~--0~-0--2~-2-----|
D|--------------------2-2-  -------------------------|

Outro
(2:32)
  the end         end             end 
D|--------------------------------------------------------------|
A|--------------------------------------------------------------|
F|--------------------------------------------------------------|
C|4~--4-4-4-4-4---4~--4-4-4-4-4---4~--4-4-4-4-4---2~-2-2-2~-2-2-|
G|4~--4-4-4-4-4---4~--4-4-4-4-4---4~--4-4-4-4-4---2~-2-2-2~-2-2-|
D|2~--2-2-2-2-2---2~--2-2-2-2-2---2~--2-2-2-2-2---0~-0-0-0~-0-0-|

Rhythm   (2:38)
  the end         end             end             end             end
D|----------------------------------------------------------------------|
A|----------------------------------------------------------------------|
F|----------------------------------------------------------------------|
C|4~--4-4-4-4-4---4~--4-4-4-4-4---4~--4-4-4-4-4---4~--4-4-4-4-4---4-4-4-|
G|4~--4-4-4-4-4---4~--4-4-4-4-4---4~--4-4-4-4-4---4~--4-4-4-4-4---4-4-4-|
D|2~--2-2-2-2-2---2~--2-2-2-2-2---2~--2-2-2-2-2---2~--2-2-2-2-2---2-2-2-|

Lead     (2:38)
D|----------------------------------------------------------------------|
A|----------------------------------------------------------------------|
F|----------------------2-----2---------2-----2---------2-----2---------|
C|4~--4-4-4-4-4-------4---4-4---------4---4-4---------4---4-4-----4-4-4-|
G|4~--4-4-4-4-4---------------------------------------------------4-4-4-|
D|2~--2-2-2-2-2---2~--------------2~--------------2~--------------2-2-2-|


Tablature Legend
----------------
~ Let it ring   
* Palm mute

(Time:Stamp) included to play along with album version. 
Tap to rate this tab
# A B C D E F G H I J K L M N O P Q R S T U V W X Y Z