Song name
# A B C D E F G H I J K L M N O P Q R S T U V W X Y Z

Die Mannequin - Do It Or Die tab

-------------------------------------------------------------------------------
			DO IT OR DIE - Die Mannequin
-------------------------------------------------------------------------------
Tabbed by:Freddedonna
Email: tifred2004@gmail.com

Tuning: Standard (EADGBe)



Easy song to play, but it's catchy as hell.

Tell me if there's anything wrong!



e|---------------------------------------------------------------------------|
B|---------------------------------------------------------------------------|
G|---------------------------------------------------------------------------|
D|-222--5--3--2222222222222222555555553--------------------------------------|
A|-222--5--3--2222222222222222555555553--------------------------------------|
E|-000--3--1--0000000000000000333333331--------------------------------------|
     ~  ~  ~  ************************
e|---------------------------------------------------------------------------|
B|---------------------------------------------------------------------------|
G|---------------------------------------------------------------------------|
D|-22222222222222225555555533333333-2222222222222222555555553333-333-2-------|
A|-22222222222222225555555533333333-2222222222222222555555553333-333-2-------|
E|-00000000000000003333333311111111-0000000000000000333333331111-111-0-------|
                                                               x     ~


e|---------------------------|-----------------------------------------------|
B|o--------------------------|----------------------------------------------o|
G|------------------2-2-222-5|-5-555-----------------------------------------|  
D|--2-2-222-3-3-333-0-0-000-5|-5-555-0---------------------------------------|
A|o-2-2-222-3-3-333-0-0-000-3|-3-333-0--------------------------------------o|
E|--0-0-000-1-1-111----------|-------0---------------------------------------|
      x   x   x   x   x   x    x   
Play that part twice (second time, play up to the line).

e|---------------------------------------------------------------------------|
B|---------------------------------------------------------------------------|
G|---------------------------------------------------------------------------|
D|-22222222222222225555555533333333-2222222222222222555555553333-333-2-------|
A|-22222222222222225555555533333333-2222222222222222555555553333-333-2-------|
E|-00000000000000003333333311111111-0000000000000000333333331111-111-0-------|
                                                               x     ~


e|---------------------------|-----------------------------------------------|
B|o--------------------------|----------------------------------------------o|
G|------------------2-2-222-5|-5-555-----------------------------------------|  
D|--2-2-222-3-3-333-0-0-000-5|-5-555-0---------------------------------------|
A|o-2-2-222-3-3-333-0-0-000-3|-3-333-0--------------------------------------o|
E|--0-0-000-1-1-111----------|-------0---------------------------------------|
      x   x   x   x   x   x    x   
Play that part twice (second time, play up to the line).

e|---------------------------------------------------------------------------|
B|---------------------------------------------------------------------------|
G|---------------------------------------------------------------------------|
D|-22222222222222225555555533333333-22222222222222225555555533333333---------|	
A|-22222222222222225555555533333333-22222222222222225555555533333333---------|
E|-00000000000000003333333311111111-00000000000000003333333311111111---------|
Play twice

e|---------------------------------------------------------------------------|
B|---------------------------------------------------------------------------|
G|---------------------------------------------------------------------------|
D|-55555555/88888888---------------------------------------------------------|
A|-55555555/88888888---------------------------------------------------------|
E|-33333333/66666666---------------------------------------------------------|

e|---------------------------------------------------------------------------|
B|---------------------------------------------------------------------------|
G|-22----------22------------------------------------------------------------|
D|-00-33-22-33-00-33-55-33---------------------------------------------------|
A|-00----------00-------------88-77-88----88-77-55---------------------------|
E|-------------------------66----------55------------------------------------|

e|---------------------------------------------------------------------------|
B|---------------------------------------------------------------------------|
G|---------55555555----------------------------------------------------------|
D|-8888888855555555----------------------------------------------------------|
A|-8888888833333333----------------------------------------------------------|
E|-66666666------------------------------------------------------------------|

e|---------------------------------------------------------------------------|
B|---------------------------------------------------------------------------|
G|---------------------------------------------------------------------------|
D|-222--5--3--22222222222222225555555533333333-------------------------------|
A|-222--5--3--22222222222222225555555533333333-------------------------------|
E|-000--3--1--00000000000000003333333311111111-------------------------------|
     ~  ~  ~  ********************************

e|---------------------------------------------------------------------------|
B|---------------------------------------------------------------------------|
G|---------------------------------------------------------------------------|
D|-2222222222222222555555553-------------------------------------------------|
A|-2222222222222222555555553-------------------------------------------------|
E|-0000000000000000333333331-------------------------------------------------|
   ************************

e|---------------------------------------------------------------------------|
B|---------------------------------------------------------------------------|
G|---------------------------------------------------------------------------|
D|-22222222222222225555555533333333-22222222222222225555555533333333---------|	
A|-22222222222222225555555533333333-22222222222222225555555533333333---------|
E|-00000000000000003333333311111111-00000000000000003333333311111111---------|
Play twice

e|---------------------------------------------------------------------------|
B|---------------------------------------------------------------------------|
G|---------------------------------------------------------------------------|
D|-22222222222222225555555533333333-2222222222222222555555553333333----------|
A|-22222222222222225555555533333333-2222222222222222555555553333333----------|
E|-00000000000000003333333311111111-0000000000000000333333331111111----------|
                                                               

e|---------------------------------------------------------------------------|
B|---------------------------------------------------------------------------|
G|---------------------------------------------------------------------------|
D|-555555553333-330-2--------------------------------------------------------|
A|-555555553333-330-2--------------------------------------------------------|
E|-333333331111-110-0--------------------------------------------------------|
              x     ~



* = Palm muted note
~ = Let ring
x = Quickly mute note after playing it
/ = Slide
===============================================================================
Tap to rate this tab
# A B C D E F G H I J K L M N O P Q R S T U V W X Y Z