Song name
# A B C D E F G H I J K L M N O P Q R S T U V W X Y Z

Die Mannequin - Donut Kill Self tab

----------------------------------------------------------------------------
		     Donut Kill Self – Die Mannequin
----------------------------------------------------------------------------
Tabbed by:claydoggy

My first tab and no one tabs die mannequin, so here you go.

Tuning: Drop D

Riff A
e|-------------------------------------------------------------------------|
B|-------------------------------------------------------------------------|
G|-------------------------------------------------------------------------|
D|------------------------------------------4-4-4--4-4---------------------|
A|-----------6-----------6-------------6----4-4-4--4-4---------------------|
E|-1-1-8-------8-7-7-7------8-6-6-6------6--4-4-4--4-4—--------------------|
Pm   -             -            -             -

Riff B
e|-------------------------------------------------------------------------|
B|-------------------------------------------------------------------------|
G|-------------------------------------------------------------------------|
D|-1--1-1--111---7--7-7--777---6--6-6--666---4--4-4--444-------------------|
A|-1--1-1--111---7--7-7--777---6--6-6--666---4--4-4--444-------------------|
E|-1--1-1--111---7--7-7--777---6--6-6--666---4--4-4--444-------------------|


Leads to Chorus---listen to cd for timing
e|-------------------------------------------------------------------------|
B|-------------------------------------------------------------------------|
G|-------------------------------------------------------------------------|
D|-4-4-4-4-4-4-4-2-2-2-2-2-2-2-11-11-11-11-11-11-7-7-7-7-7-7-7-7-7-7-9-9-9-|
A|-4-4-4-4-4-4-4-2-2-2-2-2-2-2-11-11-11-11-11-11-7-7-7-7-7-7-7-7-7-7-9-9-9-|
E|-4-4-4-4-4-4-4-2-2-2-2-2-2-2-11-11-11-11-11-11-7-7-7-7-7-7-7-7-7-7-9-9-9-|


continued
e|-------------------------------------------------------------------------|
B|-------------------------------------------------------------------------|
G|-------------------------------------------------------------------------|
D|-9-9-9-------------------------------------------------------------------|
A|-9-9-9-------------------------------------------------------------------|
E|-9-9-9-------------------------------------------------------------------|


Chorus
e|---------------------------------------------------------|---------------|
B|---------------------------------------------------------|---------------|
G|---------------------------------------------------------|-9~~8-------9~-|
D|-11--11--11-11-11--9--9—-9-9-9--7--7--7-7-7--7--7--7-7-7-|------9-7-7-—87|
A|-11--11--11-11-11--9--9--9-9-9--7--7--7-7-7--7--7--7-7-7-|---------------|
E|-11--11--11-11-11--9--9--9-9-9--7--7--7-7-7--7--7--7-7-7-|---------------|


solo
e|-------------------------------------------------------------------------|
B|-------------------------------------------------------------------------|
G|-------------------------------------------------------------------------|
D|-7b-7b—-7b-7b--7b-7b—-7gb—777777p0---------------------------------------|
A|-------------------------------------------------------------------------|
E|-------------------------------------------------------------------------|


Other riff-----listen for timing
e|-------------------------------------------------------------------------|
B|-------------------------------------------------------------------------|
G|-------------------------------------------------------------------------|
D|-6-6-x-x-4-4-6-6-x-x-6-6-0-7-7-x-x-6-6-7-x-x-7-7-0-----------------------|
A|-6-6-x-x-4-4-6-6-x-x-6-6-0-7-7-x-x-6-6-7-x-x-7-7-0-----------------------|
E|-6-6-x-x-4-4-6-6-x-x-6-6-0-7-7-x-x-6-6-7-x-x-7-7-0-----------------------|


End on------listen for timing                     last note------------------|weird timing
e|------------------------------------------|--------------------------------|
B|------------------------------------------|--------------------------------|
G|------------------------------------------|--------------------------------|
D|--9-9-9--7-7-7-7--5-5-5-5-5-5-------------|------7-------------------------|
A|--9-9-9--7-7-7-7--5-5-5-5-5-5-------------|------7-------------------------|
E|--9-9-9--7-7-7-7--5-5-5-5-5-5-------------|------7-------------------------|

| /  slide up
| \  slide down
| h  hammer-on
| p  pull-off
| ~  vibrato
| +  harmonic
| x  Mute note
| pm Palm mute
| gb gradual bend            ENJOY
============================================================================
Tap to rate this tab
# A B C D E F G H I J K L M N O P Q R S T U V W X Y Z