Guitaretab - guitar tabs
Song name
# A B C D E F G H I J K L M N O P Q R S T U V W X Y Z

Die Mannequin - Fatherpunk tab

----------------------------------------------------------------------------
			Die Mannequin - Fatherpunk
----------------------------------------------------------------------------
Tabbed by:claydoggy 2nd tab

Tuning: Drop D

Another great song by die mannequin

Intro
e|-------------------------------------------------------------------------|
B|-------------------------------------------------------------------------|
G|------------------------------------------------------------8-8-8--8-8-8-|
D|-8-8--8-8-8--8-8-8--8-8-8--9-9-9--9-9-9--11-11-11-11-11-11--6-6-6--6-6-6-|
A|-6-6--6-6-6--6-6-6--6-6-6--6-6-6--6-6-6---6--6--6--6--6--6--6-6-6--6-6-6-|
E|-6-6--6-6-6--6-6-6--6-6-6--6-6-6--6-6-6---6--6--6--6--6--6--6-6-6--6-6-6-|

continued
e|-------------------------------------------------------------------------|
B|-------------------------------------------------------------------------|
G|-8-8-8--8-8-8------------------------------------------------------------|
D|-6-6-6--6-6-6--2--4--4--4--4---4-2-4-------------------------------------|
A|-6-6-6--6-6-6--2--2--2--2--2---4-2-4-------------------------------------|
E|-6-6-6--6-6-6--2--2--2--2--2---4-2-4-------------------------------------|

In beginning, there are 2 intro verses at 0:14
Verse x4 (except with changes noted below)
e|---------------------------------------------------------------------------|
B|---------------------------------------------------------------------------|
G|---------------------------------------------------------------------------|
D|-8-8-8--8-8-8--9-9-9--9-9-9--11-11-11--11-11-11--9-9-9--9-9-9--------------|
A|-8-6-6--6-6-6--6-6-6--6-6-6---6--6--6---6--6--6--6-6-6--6-6-6--------------|
E|-6-6-6--6-6-6--6-6-6--6-6-6---6--6--6---6--6--6--6-6-6--6-6-6--------------|
                                /                             \
On 2nd time, continue doing this chord instead of switching to this one.
Also on 4th time do the same as the second for the last chord, except time it as 
  instead of / // /// ///

Choruses
e|-------------------------------------------------------------------------|
B|-------------------------------------------------------------------------|
G|-------------------------------------------------------------------------|
D|-6-6-6--6-6-6--4-4-4--4-4-4--14-14-14--14-14-14--11-11-11--11-11-11------|
A|-6-6-6--6-6-6--4-4-4--4-4-4--14-14-14--14-14-14--11-11-11--11-11-11------|
E|-6-6-6--6-6-6--4-4-4--4-4-4ó-14-14-14--14-14-14--11-11-11--11-11-11------|

After 1st Chorus
e|-------------------------------------------------------------------------|
B|-------------------------------------------------------------------------|
G|-------------------------------------------------------------------------|
D|-4--4--4--4--4-2-4-------------------------------------------------------|
A|-2--2--2--2--4-2-4-------------------------------------------------------|
E|-2--2--2--2--4-2-4-------------------------------------------------------|
[ Tab from: http://www.guitaretab.com/d/die-mannequin/99397.html ]
After 2nd Chorus
e|-------------------------------------------------------------------------|
B|-------------------------------------------------------------------------|
G|-------------------------------------------------------------------------|
D|-4--4--4--4--4-2-4--8--8--8--8--8--4--4--4--4--4-4--6--6--6--6-----------|
A|-2--2--2--2--4-2-4--6--6--6--6--6--2--2--2--2--2-2--4--4--4--4--5b-------|
E|-2--2--2--2--4-2-4--6--6--6--6--6--2--2--2--2--2-2--4--4--4--4-----------|

Breakdown
e|-------------------------------------------------------------------------|
B|-------------------------------------------------------------------------|
G|---8------8------6------6-------16--------16--------13--------13---------|
D|-------------------------------------------------------------------------|
A|-------------------------------------------------------------------------|
E|-6---6--6---6--4---4--4---4--14----14--14----14--11----11--11----11------|

Solo x2 (played over chorus)			       add on 2nd time
								     \
e|------------------------------------------------------|------------------|
B|----------------12-11~--7-9~--------------------------|------------------|
G|--------13-11~----------------6-8~--------8-6~--8-----|---8--------------|
D|------------------------------------8-9~----------9~--|-----9\0----------|
A|-9-11~------------------------------------------------|------------------|
E|------------------------------------------------------|------------------|
After you slide down, join guitar 2 for final chorus

End on
e|-------------------------------------------------------------------------|
B|-------------------------------------------------------------------------|
G|-------------------------------------------------------------------------|
D|--8\0--------------------------------------------------------------------|
A|--6\0--------------------------------------------------------------------|
E|--6\0--------------------------------------------------------------------|


Lyrics:


What You Might Do Does Trouble Me
(Dont Wanna Know, I Dont Wanna)
Youre Mine To Hate What Youve Grown To Be
(Dont Push It Baby, Dont Push Me)
Youre Not The Same Since All The Friends Weve Lost
And Heaven Is Not Enough
So Listen To What I Have To Say Before Youre Without Me

Theres Not A Better Place Id Rather Burn
You Told Be But Ill Never Learn
Theres Not A Better Place Id Rather Burn
You Told Be But Ill Never Learn
Then Your Heart

Teenage Dreams Come Into Us
(Dont Bother Me, Dont Bother)
All Over Me Theyre Forced To Breathe
(All Over Me Theyre Forced To Breathe)
Dont Try To Save Me Cause
Its Me That Must
And Baby Its Just A Gun
So Listen To What I Say With Your Heart Above Her

Theres Not A Better Place Id Rather Burn
You Told Be But Ill Never Learn
Theres Not A Better Place Id Rather Burn
Theres Not A Better Place Id Rather Burn
Then Your Heart
Then Your Heart

Soldiers Everywhere Around Me
Prinsoners Of Sound
So Go Ahead And Drown Me
Soliders Everywhere Around Me
Prisoners Of Sound
So Go Ahead And Drown Me
In Your Heart
In Your Heart

Theres Not A Better Place Id Rather Burn
Theres Not A Better Place Id Rather Burn
Theres Not A Better Place Id Rather Burn
Theres Not A Better Place Id Rather Burn
Yeah
Yeah
Burn
Burn


Well, there you go. Guitar 2 pretty much doubles guitar 1 for the whole song after the 
Put corrections in the comments for others to see since I donít have an account. ENJOY!

| /  slide up
| \  slide down
| h  hammer-on
| p  pull-off
| ~  vibrato
| +  harmonic
| x  Mute note
============================================================================
Related for Fatherpunk tab