Song name
# A B C D E F G H I J K L M N O P Q R S T U V W X Y Z

Die Pilot - Nameless tab

            Necroblaspheme - Nameless 
          by Steven Theodoru 
email me if u think there is any mistakes : stevo_651@hotmail.com
 http://www.myspace.com/necroblasphemeband 
Date when finished: Sept. 17 2007.

palm mute = pm.      slide = /          hold= ~
tremolo pick = tp.   pinch harmonic = *


Intro x6
C|--------------------------------------------------------------|
G|--------------------------------------------------------------|
E|--------------------------------------------------------------|
B|--777------------------666------------------------------------|
F|--777------------------666------------------------------------|
C|--555----55555-22222---444--44444-00000-----------------------|
Pm  ...  tp........... pm... tp..........

Intro part 2
C|--------------------------------------------------------------|
G|--------------------------------------------------------------|
E|--------------------------------------------------------------|
B|-7777-4444-6666-2222--7777-4444-6666--2222-3~-----------------|
F|-7777-4444-6666-2222--7777-4444-6666--2222-3~-----------------|
C|-5555-2222-4444-0000--5555-2222-4444--0000-1~-----------------|
Pm .... .... .... ....  .... .... ....  .... 

verse 1        X3            Verse fill X1
C|---------------------|----------------------|
G|---------------------|----------------------|
E|---------------------|----------------------|
B|---------------------|----------------------|
F|-7777----------------|-2-4-5----------------|
C|------5555-4444-3333-|-0-6-3----------------|
TP .... .... .... .... PM. . .

verse 2 first half X3     second half X1   
C|----------------------|---------------------|
G|----------------------|---------------------|
E|----------------------|---------------------|
B|----------------------|-3/7-6---------------| x4
F|--7777----------------|-x/x-x---------------|
C|-------5555-4444-3333-|-1/5-4---------------|
 TP .... .... .... ....

PreChorus    x3            end on this.
C|-----------------------|-------------------------------------|
G|-----------------------|-------------------------------------|
E|-----------------------|-------------------------------------|
B|-2-3--5--3-2-----------|-2-3--5-6-5--------------------------|
F|-2-3--7--3-2-----------|-2-3--7-8-7--------------------------|
C|-0-1-----1-0-----------|-0-1---------------------------------|
         Pm. .

Chorus x 3 and do once more but leave the last 2 chords.
C|--------------------------------------------------------------|
G|--------------------------------------------------------------|
E|--------------------------------------------------------------|
B|-----------------------565------------------------------------|
F|-3333-3-4444-4-3333-3--787------------------------------------|
C|-5555-5-6666-6-1111-1-----------------------------------------|
pm ....   ....   ....

Interlude
C|---------------------------------------------|
G|---------------------------------------------|
E|---------------------------------------------|
B|------------55555--------------------4444444-|
F|------------------44444----------------------|
C|-0000-3333--------------33333-000-333--------|
TP .... ....  ..... ..... ..... ... ... ......

C|----------------------------------------------|
G|----------------------------------------------|
E|----------------------------------------------|
B|-----------55555-----------------565----------|
F|-----------------44444-----------343----------|
C|-0000-3333-------------33333-0-3--------------|
tp .... .... ..... ..... .....   pm...

C|----------------------------------------------|
G|----------------------------------------------|
E|----------------------------------------------|
B|-----------55555---------------------4444444--|
F|-----------------44444------------------------|
C|-0000-3333-------------33333-000-333----------|
TP .... .... ..... ..... ..... ... ... .......

C|---------------------------------------|
G|---------------------------------------|
E|---------------------------------------|
B|-----------55555-----------------5-4---|
F|-----------------44444-----------3-6---|
C|-0000-3333-------------33333-0-3-------|
Tp .... .... ..... ..... .....   Pm. .

Verse 2 x4

Bridge x4
C|--------------------------------------------------------------|
G|--------------------------------------------------------------|
E|--------------------------------------------------------------|
B|-------88888--------------------------------------------------|
F|-------------66666-55555-------555555-66666-55555-66666-------|
C|-55555-------------------77777--------------------------------|
Tp ..... ..... ..... ..... ..... ...... ..... ..... .....
C|-----------------------------------------------------|
G|-----------------------------------------------------|
E|-----------------------------------------------------|
B|-2222-2-2222-2-2222-2222-2-2222----------------------|
F|-2222-2-2222-2-2222-2222-2-2222----------------------|
C|-0000-0-0000-0-0000-0000-0-0000----------------------|
Pm .... . .... . .... .... . ....

prechorus x2

chorus two x2
C|---------------------------------|
G|---------------------------------|
E|---------------------------------|
B|-2-3-----3-2---------------------|
F|-2-3-----3-2---------------------|
C|-0-1--3*-1-0---------------------|
Pm         . .

Bridge 2 x2
C|--------------------------------------------------------------|
G|--------------------------------------------------------------|
E|--------------------------------------------------------------|
B|-2222-2222-2222-2222-2222-3333-3333-3333-3333-3333------------|
F|-2222-2222-2222-2222-2222-3333-3333-3333-3333-3333------------|
C|-0000-0000-0000-0000-0000-1111-1111-1111-1111-1111------------|
Pm .... .... .... .... .... .... .... .... .... ....

PreChorus x3

Chorus x12
 end on
C|-------------------|
G|-------------------|
E|-------------------|
B|-------------------|
F|--5~~~-------------|
C|--7~~~-------------| let it echo throughout!
Tap to rate this tab
 
# A B C D E F G H I J K L M N O P Q R S T U V W X Y Z