Song name
# A B C D E F G H I J K L M N O P Q R S T U V W X Y Z

Die Puhdys - Wut Will Nicht Sterben tab

Good song, and it's super simple, so i think its good for a beginner to learn.
If you listen to Rammstein then you will like this song just for the fact that
the vocalist's voice complements this very well.

Have fun with the tab.

Riff 1A
|---------------------------------------------------------------------------|
|---------------------------------------------------------------------------|
|---------------------------------------------------------------------------|
|54-x-x-2-x-x-x-x-44/5-5x-x--x-x--x-----------------------------------------|
|32-x-x-0-x-x-x-x-22/3-3x-x--x-x--x-----------------------------------------|
|---------------------------------------------------------------------------|


Riff 1b  
just a slight difference of one power chord
|---------------------------------------------------------------------------|
|---------------------------------------------------------------------------|
|---------------------------------------------------------------------------|
|4-x-x-2-x-x-x-x-44/5-5x-x--x-x--x------------------------------------------|
|2-x-x-0-x-x-x-x-22/3-3x-x--x-x--x------------------------------------------|
|---------------------------------------------------------------------------|


Riff 2A
|---------------------------------------------------------------------------|
|---------------------------------------------------------------------------|
|---------------------------------------------------------------------------|
|4-x-x-4-x-x-4-x-5-x-x-5-x-x-5\4--------------------------------------------|
|2-x-x-2-x-x-2-x-3-x-x-3-x-x-3\2--------------------------------------------|
|---------------------------------------------------------------------------|


Riff 2b
Once again, just a slight power chord change
|---------------------------------------------------------------------------|
|---------------------------------------------------------------------------|
|---------------------------------------------------------------------------|
|4-x-x-4-x-x-4-x-5-x-x-5-x-x-5-x--------------------------------------------|
|2-x-x-2-x-x-2-x-3-x-x-3-x-x-3-x--------------------------------------------|
|---------------------------------------------------------------------------|



Chorus
That's it, simple.
|---------------------------------------------------------------------------|
|---------------------------------------------------------------------------|
|7---------9---------10---------9---------7---------------------------------|
|7---------9---------10---------9---------7---------------------------------|
|5---------7---------8----------7---------5---------------------------------|
|---------------------------------------------------------------------------|
 \---x3----/



Solo
|---------------------------------------------------------------------------|
|---------------------------------------------------------------------------|
|---------------------------------------------------------------------------|
|---------------------------------------------------------------------------|
|----7--9--10--12--14--10----9--7--7-7-7-7-7-7-7h8p7h8p7h8p7h8p7h8p7h8------|
|2~^------------------------------------------------------------------------|
                       
|---------------------------------------------------------------------------|
|---------------------------------------------------------------------------|
|-------------12-10-11-(12)(11)(9)(12)(11)(9)12p11p9p0----------------------|
|9^^-7--9---12--------------------------------------------------------------|
|---------------------------------------------------------------------------|
|---------------------------------------------------------------------------|
                        \-played really fast-/

|---------------------------------------------------------------------------|
|14p12p14p12p14p12p14p12p-12-11-9-12-10-9-12-11-9-12-10-9-------------------|
|---------------------------------------------------------------------------|
|---------------------------------------------------------------------------|
|---------------------------------------------------------------------------|
|---------------------------------------------------------------------------|

|12/15-15'15'15'14-12-12/15~------------------------------------------------|
|---------------------------------------------------------------------------|
|---------------------------------------------------------------------------|
|---------------------------------------------------------------------------|
|---------------------------------------------------------------------------|
|---------------------------------------------------------------------------|


Little after end of one of the choruses
|---------------------------------------------------------------------------|
|---------------------------------------------------------------------------|
|9~~~~~~7~~~~~~-------------------------------------------------------------|
|9~~~~~~7~~~~~~-------------------------------------------------------------|
|7~~~~~~5~~~~~~-------------------------------------------------------------|
|---------------------------------------------------------------------------|


It's so easy, it don't need a song order, so yeah.
Play it.

Tap to rate this tab
# A B C D E F G H I J K L M N O P Q R S T U V W X Y Z