Song name
# A B C D E F G H I J K L M N O P Q R S T U V W X Y Z

Die Sterne - Unsere Ideen Sind Genital tab

Highlighted       Show chord diagrams
-------------------------------------------------------------------------------
			     UNSERE IDEEN SIND... GENITAL - Die Sterne
-------------------------------------------------------------------------------
Tabbed by: AndreaHB
Email: maurer-andrea@web.de

Tuning: EADGBe
   Esus  E   A   C    Gadd9  D
e|-7-----7---5---8----10-----10------------------------------------------------------|
B|-10----9---5---8----10-----10------------------------------------------------------|
G|-9-----9---6---9----12-----11------------------------------------------------------|
D|-9-----9---7---10---12-----12------------------------------------------------------|
A|-7-----7---7---10---10-----12------------------------------------------------------|
E|-X-----X---5---8----X------10------------------------------------------------------|

Esus E A
                                  Esus    E
    Wir gehn noch einen Schritt weiter
                                  A
    Und wir beschmeißen uns mit Dreck
                 Esus    E
    Gegen jeden Einwand
                    A
    Und wir uns verrückt
                             Esus    E
    Und voll moralischer Entrüstung
                             A
    Steh'n wir als Gewinner da
                          Esus     E
    Und wenn wir schon dabei sind
                      C  Gadd9  D
    Machen wir es noch einmal


Chorus
                         A
    Unsre Ideen sind genital
            C Gadd9 D     A
    Unsre Ideen sind genital


Verse 2 (like verse 1):

    Wir reisen immer weiter
    Und wir fliegen weit raus
    Ich kann nichts mehr erkennen
    Ich kenn mich hier nicht aus
    Umgeben von Gefahren
    Jenseits von Raum und Zeit
    Wir könnten unsre Grenzen kennen
    Doch wir sind noch nicht soweit

Chorus

Solo: like verse

Verse 3 (like verse 1):
    Wir erheben einen Anspruch
    Wir bestehn auf unser Recht
    Und was wir nicht bekommen
    Das nehmen wir uns erst Recht
    Wir sind noch nicht gescheitert
    Das ha'm wir auch nicht vor
    Und trotzdem das Ergebnis
    Leider Eigentor

Chorus 2x

----
I'm not too sure about the Gadd9 chord - if you find a chord that sound better, mail it 
me! Thanks! And enjoy!
Tap to rate this tab
# A B C D E F G H I J K L M N O P Q R S T U V W X Y Z