Song name
# A B C D E F G H I J K L M N O P Q R S T U V W X Y Z

Die Toten Hosen - Halbstark tab

Tabed by : Weigiang Lam
e-mail: Wigi_1990@web.de
Band: Die Toten Hosen
Lied : Halbstark


Intro

e------------------------------------------------------------|
h-8-7-8-10-8-7-8-10------------------------------------------|
G-------------------9-8-9-11---------------------------------|
D----------------------------9-8-9-11------------------------|
A------------------------------------------------------------|
E------------------------------------------------------------|

0:20 Verse und Refrain
e--------------------------------------------------------|
h--------------------------------------------------------|
G-------------5-5-5-7-7-7-7------------------------------|
D-5-5-5-2-2-2-5-5-5-7-7-7-7------------------------------|
A-5-5-5-2-2-2-3-3-3-5-5-5-5------------------------------|
E-3-3-3-0-0-0--------------------------------------------|


1:33
e----------------------------------------------------------|
h-9-7-7-9-7-7-11-11-11-11-9-7-9----------------------------|
G----------------------------------------------------------|
D----------------------------------------------------------|
A----------------------------------------------------------|
E----------------------------------------------------------|
Tap to rate this tab
# A B C D E F G H I J K L M N O P Q R S T U V W X Y Z