Song name
# A B C D E F G H I J K L M N O P Q R S T U V W X Y Z

Die Toten Hosen - Und Sowas Nennst Du Liebe tab

Tabed by : Wigi_1990@web.de
Band: Die Toten Hosen
Lied: Und sowas nennst du nun Liebe


Intro und alle Strophen
e--------------------------------------------------------------|
h--------------------------------------------------------------|
G-----------------------4-4-6-6-6------------------------------|
D-3-4-4--3-4-4-3-4-4-4--4-4-6-6-6-4-4-4------------------------|
A-3-4-4--3-4-4-3-4-4-4--2-2-4-4-4-4-4-4------------------------|
E-1-2-2--1-2-2-1-2-2-2------------2-2-2------------------------|

Refrain
e--------------------------------------------------------------|
h--------------------------------------------------------------|
G-4-4-4-4-6-6-6-6----------------------------------------------|
D-4-4-4-4-6-6-6-6-4--------------------------------------------|
A-2-2-2-2-4-4-4-4-4--------------------------------------------|
E-----------------2--------------------------------------------|

Bridge
e--------------------------------------------------------------|
h--------------------------------------------------------------|
G--------------------------------------------------------------|
D-7-6-4-7-9-4--------------------------------------------------|
A-7-6-4-7-9-4--------------------------------------------------|
E-5-4-2-5-7-2--------------------------------------------------|

Warum.......
e---------------------------------------------------------------|
h---------------------------------------------------------------|
G-8-8-8-8-10-11-8-8-8-8-10-11-8-8-8-8-8-6-6-8-8-8-6-6-----------|
D-8-8-8-8-10-11-8-8-8-8-10-11-8-8-8-8-8-6-6-8-8-8-6-6-----------|
A-6-6-6-6-8--9--6-6-6-6-8--9--6-6-6-6-6-4-4-6-6-6-4-4-----------|
E---------------------------------------------------------------|
Tap to rate this tab
 
# A B C D E F G H I J K L M N O P Q R S T U V W X Y Z