Song name
# A B C D E F G H I J K L M N O P Q R S T U V W X Y Z

Die Toten Hosen - Auld Lang Syne tab

Highlighted       Show chord diagrams
Hi!
This is Auld Lang Syne by "Die Toten Hosen"
It's a cool song with a nice and quiet easy solo
I think there's also a version of this song by Dropkick Murphys which sounds more or 
the same but I'm not sure about this....

So have fun with the song!

       (A)             (E)

Should all acquaintance be forgot,

     (A)              (D)
and never brought to mind

       (A)              (E)
Should all acquaintance be forgot,

         (D)               (A)
for the sake of auld lang syne.


Play these cords during the verse(palm-muted) and the chorus.

During the solo the 2nd guitar plays

   B F# B E

   B F# E B


Solo:
e---------------------------|
B-------4-2-0-2-4-2-0-0-4---|
G-4---4---------------------|  at the beginning of the solo just slide up
D---4-----------------------|  from the A-chord
A---------------------------|
E---------------------------|

e-2-4-4-2-------------------|
B---------4-4-4-p2p0-2-4-2--|
G---------------------------|
D---------------------------|
A---------------------------|
E---------------------------|

e---------------------------|
B-4-2-0-------0-------------|
G-------1-1-----------------|
D-----------4---------------|
A---------------------------|
E---------------------------|

e-4p2----------------4p2---2h4-|
B-----4-4-p2p0-2-4-2-----4-----|
G------------------------------|
D------------------------------|
A------------------------------|
E------------------------------|

e--7-4p2-------------------------|
B--------4-4-p2p0-2-4p2----------|
G--------------------------------|
D--------------------------------|
A--------------------------------|
E--------------------------------|

e--------------------------------|
B--4p2p0-------0-----------------|
G--------1-1---------------------|
D------------4-------------------|
A--------------------------------|
E--------------------------------|

the repeat verse & chorus!
Tap to rate this tab
# A B C D E F G H I J K L M N O P Q R S T U V W X Y Z