Song name
# A B C D E F G H I J K L M N O P Q R S T U V W X Y Z

Die Toten Hosen - Wir Bleiben Stumm tab

Intro:
           D                 F#m               Hm                  G
E |--------5---------5--------5-------5------3--5--3---3--5--3---3--5--3-|
H |-----3-----3---3----3----2---2---2---2--3---------3---------3---------|
G |--2----------2---------2-------2--------------------------------------|
D |----------------------------------------------------------------------|
A |----------------------------------------------------------------------|
E |----------------------------------------------------------------------|

1.Strophe:
           D                 F#m               Hm                  G
E |--------5---------5--------5-------5------3--5--3---3--5--3---3--5--3-|
H |-----3-----3---3----3----2---2---2---2--3---------3---------3---------|
G |--2----------2---------2-------2--------------------------------------|
D |----------------------------------------------------------------------|
A |----------------------------------------------------------------------|
E |----------------------------------------------------------------------|

Refrain 1:
      D      A     C     G
E |------------------------------------------------------------------|
H |------------------------------------------------------------------|
G |--7-7-7-7-7-7-7------------------3-3-3-3-3-3-3--------------------|2 mal
D |--7-7-7-7-7-7-7--7-7-7-7-7-7-7---3-3-3-3-3-3-3--3-3-3-3-3-3-3-----|
A |--5-5-5-5-5-5-5--7-7-7-7-7-7-7---5-5-5-5-5-5-5--3-3-3-3-3-3-3-----|
E |-----------------5-5-5-5-5-5-5------------------5-5-5-5-5-5-5-----|
2.Strophe:
           D                 F#m               Hm                  G
E |--------5---------5--------5-------5------3--5--3---3--5--3---3--5--3-|
H |-----3-----3---3----3----2---2---2---2--3---------3---------3---------|
G |--2----------2---------2-------2--------------------------------------|
D |----------------------------------------------------------------------|
A |----------------------------------------------------------------------|
E |----------------------------------------------------------------------|

Refrain 2:
      D      A     C     G
E |------------------------------------------------------------------|
H |------------------------------------------------------------------|
G |--7-7-7-7-7-7-7------------------3-3-3-3-3-3-3-----------------7--|2 mal
D |--7-7-7-7-7-7-7--7-7-7-7-7-7-7---3-3-3-3-3-3-3--3-3-3-3-3-3-3--7--|
A |--5-5-5-5-5-5-5--7-7-7-7-7-7-7---5-5-5-5-5-5-5--3-3-3-3-3-3-3--5--|
E |-----------------5-5-5-5-5-5-5------------------5-5-5-5-5-5-5-----|

Bridge:
       D   A  C           D       D   A  C           D
E |--2--0-----------3--2--------2--0-----------3--2---------------|
H |--------2--1--3--------3-----------2--1--3--------3------------|
G |---------------------------------------------------------------|
D |---------------------------------------------------------------|
A |---------------------------------------------------------------|
E |---------------------------------------------------------------|

         Hm               A             F#m             G
E |--2-2-2-2-2-2-2--5-5-5-5-5-5-5--2-2-2-2-2-2-2--3-3-3-3-3-3-3---|
H |--3-3-3-3-3-3-3--5-5-5-5-5-5-5--2-2-2-2-2-2-2--3-3-3-3-3-3-3---|
G |--4-4-4-4-4-4-4--6-6-6-6-6-6-6--2-2-2-2-2-2-2--4-4-4-4-4-4-4---|
D |--4-4-4-4-4-4-4--7-7-7-7-7-7-7--4-4-4-4-4-4-4--5-5-5-5-5-5-5---|
A |--2-2-2-2-2-2-2--7-7-7-7-7-7-7--4-4-4-4-4-4-4--5-5-5-5-5-5-5---|
E |--2-2-2-2-2-2-2--5-5-5-5-5-5-5--2-2-2-2-2-2-2--3-3-3-3-3-3-3---|

         Hm               A             F#m             G    A
E |--2-2-2-2-2-2-2--5-5-5-5-5-5-5--2-2-2-2-2-2-2--3-3-3-3--5-5-|
H |--3-3-3-3-3-3-3--5-5-5-5-5-5-5--2-2-2-2-2-2-2--3-3-3-3--5-5-| vielleicht
G |--4-4-4-4-4-4-4--6-6-6-6-6-6-6--2-2-2-2-2-2-2--4-4-4-4--6-6-| auch power
D |--4-4-4-4-4-4-4--7-7-7-7-7-7-7--4-4-4-4-4-4-4--5-5-5-5--7-7-| chord statt
A |--2-2-2-2-2-2-2--7-7-7-7-7-7-7--4-4-4-4-4-4-4--5-5-5-5--7-7-| dem unter A,
E |--2-2-2-2-2-2-2--5-5-5-5-5-5-5--2-2-2-2-2-2-2--3-3-3-3--5-5-| also nur 577


         D    F#m   Hm     G
E |----5--5--5--5--5--5--3--5--3-------------------------------|
H |--3--3--2--2--5--5--3---------------------------------------|
G |------------------------------------------------------------|
D |------------------------------------------------------------|
A |------------------------------------------------------------|
E |------------------------------------------------------------|

3.Strophe:
       D    F#m   Hm     G
E |----5--5--5--5--5--5--3--5--3----5---5---5---5---5--5--5--5---5-7-5--|
H |--3--3--2--2--5--5--3----------3---3---2---2---5---5--3--3--2--------|
G |---------------------------------------------------------------------|
D |---------------------------------------------------------------------|
A |---------------------------------------------------------------------|
E |---------------------------------------------------------------------|

Refrain 3:
    D      A     C     G
E |------------------------------------------------------------------|
H |------------------------------------------------------------------|
G |--7-7-7-7-7-7-7------------------3-3-3-3-3-3-3-----------------7--|2 mal
D |--7-7-7-7-7-7-7--7-7-7-7-7-7-7---3-3-3-3-3-3-3--3-3-3-3-3-3-3--7--|
A |--5-5-5-5-5-5-5--7-7-7-7-7-7-7---5-5-5-5-5-5-5--3-3-3-3-3-3-3--5--|
E |-----------------5-5-5-5-5-5-5------------------5-5-5-5-5-5-5-----|


Outro:

      D   A  C           D       D   A  C           D
E |--2--0-----------3--2--------2--0-----------3--2---------------|
H |--------2--1--3--------3-----------2--1--3--------3------------|
G |---------------------------------------------------------------| 4 mal
D |---------------------------------------------------------------|
A |---------------------------------------------------------------|
E |---------------------------------------------------------------|
Tap to rate this tab
# A B C D E F G H I J K L M N O P Q R S T U V W X Y Z