Song name
# A B C D E F G H I J K L M N O P Q R S T U V W X Y Z

Die Toten Hosen - Goodbye Garageland tab

Help us improve GuitareTab! Take a short survey!
i have been looking for the tabs to this song but i couldnt find it so now i
maked it by my own.This is my first (and maybe last) tab

This could be the rythm guitar in the intro

E---8---x5----3---x5----5---x5----1---x3----3---x3--------------------------|
A--10---------5---------7---------3---------5-------------------------------|
D--10---------5---------7---------3---------5-------------------------------|
G---------------------------------------------------------------------------|
H---------------------------------------------------------------------------|
E---------------------------------------------------------------------------|

Then this could be the lead guitar

E---------------------------------------------------------------------------|
A--9--9---7-7-9-7-7-5--5-7---999-9-7-12-10-9-12-12-12-10-10-7-7-5--5-5-7----|
D---------------------------------------------------------------------------|
G---------------------------------------------------------------------------|
H---------------------------------------------------------------------------|
E---------------------------------------------------------------------------|


(A)-9-9--9-7-7-5-5----------------------------------------------------------

The lead guitar follows the vocal so try to listen how it should be.
Related for Goodbye Garageland tab