Song name
# A B C D E F G H I J K L M N O P Q R S T U V W X Y Z

Die Toten Hosen - Bayern tab

Help us improve GuitareTab! Take a short survey!
This is the "Bayern" intro by "Die Toten Hosen" tabbed by me. It's my first tab 
but I think it should be right. Please rate it!

Comments: duxi13 [at] gmx (dot) at


E|----------0-------------|----------0-------------|----------0-------------|----------0----------|
B|---------------0--------|---------------0--------|---------------0--------|---------------0-----|
G|------------------------|------------------------|------------------------|---------------------|
D|------------------------|------------------------|------------------------|---------------------|
A|------7-----------------|------7-----------------|------7-----------------|------9--------------|
E|-0----------------------|-5----------------------|-0----------------------|-7-------------------|


E|----------0-------------|----------0-------------|----------0-------------|----------0----------|
B|---------------0--------|---------------0--------|---------------0--------|---------------------|
G|------------------------|------------------------|------------------------|---------------8-----|
D|------------------------|------------------------|------------------------|---------------------|
A|------7-----------------|------7-----------------|------7-----------------|------9--------------|
E|-0----------------------|-5----------------------|-0----------------------|-7-------------------|


E|----------0-------------|------------------------|----------0-------------|----------0----------|
B|------------------------|----------2-------------|------------------------|---------------4-----|
G|---------------6--------|---------------2--------|---------------4--------|---------------------|
D|------6-----------------|------2-----------------|------4-----------------|------4--------------|
A|-4----------------------|-0----------------------|-2----------------------|-2-------------------|
E|------------------------|------------------------|------------------------|---------------------|
Related for Bayern tab