Song name
# A B C D E F G H I J K L M N O P Q R S T U V W X Y Z

Die Toten Hosen - Goodbye Garageland tab

Intro:

E--------------------------------|
H--------------------------------|
G--6-----------------------------|
D--6-x5--6-x5--8-x5--3-x3--6-x3--| x3
A--4-----6-----8-----3-----6-----|
E--------4-----6-----1-----4-----|

Strophe 1:                                  we had 48         little riot of
                                           ^  hours...        ^ our own...
E------------------------------------------|------------------|------------|
H------------------------------------------|------------------|------------|
G-------------666---------------666--------8------------------|------------|
D--4/8---888---------4/8---888-------------8------------------6------------|
A--4/8---------------4/8-------------------6------------------6------------|
E--2/6---------------2/6--------------------------------------4------------|

  cities of        Johnny came
   ^ dead were...   ^ marchin'home...
E--|----------------|------------------|
H--|----------------|------------------|
G--8----------------|------------------|
D--8----------------6------------------|
A--6----------------6------------------|
E-------------------4------------------|

Intro:

E--------------------------------|
H--------------------------------|
G--6-----------------------------|
D--6-x5--6-x5--8-x5--3-x3--6-x3--| x4
A--4-----6-----8-----3-----6-----|
E--------4-----6-----1-----4-----|

Strophe 2:                                                      rebellion...
                                                                    ^
E--2----------------6--------------2----------------6---------------|------|
H--2--------222-----6--------------2--------222-----6---------------|------|
G--2---222----------6--------666---2---222----------6--------666----8------|
D--4----------------8---888--------4----------------8---888---------8------|
A--4----------------8--------------4----------------8---------------6------|
E--2----------------6--------------2----------------6----------------------|

  soon as the    up all night  got the
   ^ sun went...  ^ we were... ^ wake-up...
E--|--------------|------------|------------|
H--|--------------|------------|------------|
G--|--------------8------------|------------|
D--6--------------8------------6------------|
A--6--------------6------------6------------|
E--4---------------------------4------------|

Solo:

E--------------------------------------------------------------------------|
H------976---------976-----------------------------------------------------|
G------------8~----------6-5---6-5--5h6-5---6-5--5h6-5---6-5---5h6-5-8-10-8|
D--6-6-----------6----------8-----8------8-----8------8-----8--------------|
A--------------------------------------------------------------------------|
E--------------------------------------------------------------------------|

Intro:

E--------------------------------|    E------|
H--------------------------------|    H------|
G--6-----------------------------|    G--6---|
D--6-x5--6-x5--8-x5--3-x3--6-x3--| x3 D--6---|
A--4-----6-----8-----3-----6-----|    A--4---|
E--------4-----6-----1-----4-----|    E------|
Tap to rate this tab
# A B C D E F G H I J K L M N O P Q R S T U V W X Y Z