Song name
# A B C D E F G H I J K L M N O P Q R S T U V W X Y Z

Die Toten Hosen - Die Letzte Schlacht tab

Die letzte Schlacht - Die Toten Hosen SOLO

e|-----------------------------------------------------------|
B|------------------------------------------10--8-8-8-10-8---|
G|----4--5--7--9-9-9-10-9--7-----------9---------------------|
D|-7-------------------------10-9----7---10------------------|
A|--------------------------------10-------------------------|
E|-----------------------------------------------------------|

e|-8--------8---------8-------8-7----------12----------13--------------------|
B|---10-------10--------10--------8--13----------13----------13----13-12-----|
G|-------9--------10--------9-----------14----14----14----14----14-------12--|
D|---------------------------------------------------------------------------|
A|---------------------------------------------------------------------------|
E|---------------------------------------------------------------------------|
Tap to rate this tab
 
# A B C D E F G H I J K L M N O P Q R S T U V W X Y Z