Song name
# A B C D E F G H I J K L M N O P Q R S T U V W X Y Z

Die Toten Hosen - Halbstark tab

Selbst rausgehört, hört sich richtig an, seid nicht zu streng ;)


Intro & Chorus:

|----3-2-3-5--3-2-3-5--------------------------------------------------------|
|---------------------5-4-5-7--5-4-5-7---------------------------------------|
|---------------------------------------5-4-5-7--5-4-5-7--7-6-7-9--7-6-7-9---|
|----------------------------------------------------------------------------|
|----------------------------------------------------------------------------|
|----------------------------------------------------------------------------|


Akkorde, die sich ständig im Song wiederholen:

G    Em    C    D

Zum Beispiel:
G
Halbstaark, oh baby, baby,
Em
Halbstaark, oh baby, baby
C
Halbstark, Halbstark nennt man
D
Siee


Solo:
|---5-3-3-3-5-3--3-7-5-3-5--| x2
|---------------------------|
|---------------------------|
|---------------------------|
|---------------------------|
|---------------------------|


Bewerten =)
Tap to rate this tab
 
# A B C D E F G H I J K L M N O P Q R S T U V W X Y Z