Song name
# A B C D E F G H I J K L M N O P Q R S T U V W X Y Z

Die Toten Hosen - Ein Schritt Zuviel tab

Die Toten Hosen - Ein Schritt Zuviel

Am C F G

[Intro]
E |---------------------------------|
H |---------------------------------|
G |----2--2--2--4-5-----4-5-2--2----|
D |--2---------------------------5--|
A |---------------------------------|
E |---------------------------------|

[1.Strophe]
    Am                   C              F     G
Ein Schritt zu viel nach vorn, und das war's.
    Am              C              F     G
Du bist zu weit gegangen, und das war's.
   Am               C              F         G
Einmal kein Glueck gehabt, und das war's fuer dich.

     Dm           Bb             C           A
Sie haben dich erwischt, und es gibt kein zurueck.
     Dm           Bb             C           A Bb C F G
Sie haben dich erwischt, und es gibt kein zurueck

[Refrain]
E |--0-1------0-1------0-1--0-------|
H |-------3----------3----------3---|
G |-------------------------------2-|
D |---------------------------------|
A |---------------------------------|
E |---------------------------------|

[Zwischenspiel]
Am C F G

[2.Strophe]
Es konnte nicht gut gehn, zu spaet.
Was hilft es Fehler einzusehen, zu spaet.
Nichts macht sie ungeschehen, zu spaet - für dich.

[Refrain]
Sie haben dich erwischt, und es gibt kein zurueck.
Sie haben dich erwischt, und es gibt kein zurueck.
Sie haben dich erwischt, und es gibt kein zurueck.
Sie haben dich erwischt, und es gibt kein zurueck
Tap to rate this tab
# A B C D E F G H I J K L M N O P Q R S T U V W X Y Z