Die Toten Hosen - Unsterblich tab

Die Toten Hosen

Unsterblich

by Jonathan Haarschampoo

standart tuning

Intro:

E-----------------------------------------------|
B--------4--4-----------------------------------|
G--------5--5--------7--7-----------------------|
D--------5--5--------8--8--------3---------6--6-|
A--3--3--3--3--------8--8--------3---------6--6-|
E--------------6--6--6--6--1--1--1--4\6\4--4--4-|
   
Verse:

E-----------------------------------------------|
B--------4--4-----------------------------------|
G--------5--5--------7--7-----------------------|
D--------5--5--------8--8--------3---------6--6-|
A--3--3--3--3--------8--8--------3---------6--6-|
E--------------6--6--6--6--1--1--1--4\6\4--4--4-|

                                     ich will mit

E-----------------------------------------------|
B--------4--4-----------------------------------|
G--------5--5--------7--7-----------------------|
D--------5--5--------8--8--------3---------6--6-|
A--3--3--3--3--------8--8--------3---------6--6-|
E--------------6--6--6--6--1--1--1--4\6\4--4--4-|
                                
 dir fuer immer leben

E-----------------------------------------------|
B--------4--4-----------------------------------|
G--------5--5--------7--7-----------------------|
D--------5--5--------8--8--------3---------6--6-|
A--3--3--3--3--------8--8--------3---------6--6-|
E--------------6--6--6--6--1--1--1--4\6\4--4--4-|
                                
wenigstens in dieser einen Nacht

E-----------------------------------------------|
B--------4--4-----------------------------------|
G--------5--5--------7--7-----------------------|
D--------5--5--------8--8--------3---------6--6-|
A--3--3--3--3--------8--8--------3---------6--6-|
E--------------6--6--6--6--1--1--1--4\6\4--4--4-|
                                
Lass uns jetzt beide keine Fragen stelln

E-----------------------------------------------|
B--------4--4-----------------------------------|
G--------5--5--------7--7-----------------------|
D--------5--5--------8--8--------3---------6--6-|
A--3--3--3--3--------8--8--------3---------6--6-|
E--------------6--6--6--6--1--1--1--4\6\4--4--4-|
                                
   weil keine Antwort fuer uns passt

Chorus:
E-----------------------------------------------|
B--4--4--4--4-----------------------------------|
G--5--5--5--5--7--7--7--7-----------------------|
D--5--5--5--5--8--8--8--8--------3---------6--6-|
A--3--3--3--3--8--8--8--8--------3---------6--6-|
E--------------6--6--6--6--1--1--1--4\6\4--4--4-|
                                
Nur mit dir hab ich dieses Gefuehl 

E-----------------------------------------------|
B--4--4--4--4-----------------------------------|
G--5--5--5--5--7--7--7--7-----------------------|
D--5--5--5--5--8--8--8--8--------3---------6--6-|
A--3--3--3--3--8--8--8--8--------3---------6--6-|
E--------------6--6--6--6--1--1--1--4\6\4--4--4-|
                                
  das wir heut Nacht unsterblich sind

and so on
Tap to rate this tab
 
# A B C D E F G H I J K L M N O P Q R S T U V W X Y Z