Die Toten Hosen - Liebeslied tab

-------------------------------------------------------------------------------
			     LIEBESLIED - Die Toten Hosen
-------------------------------------------------------------------------------
Tabbed by: starbreaker
Email: shurik666@inbox.ru

Tuning: standard

Intro riff:

      P.M.--------|            x2                  x2      
e|------------------------------||------------------|
B|------------------------------||------------------|
G|------------------------------||------------------|
D|--2--------------3--3--2--0---||----7--7--5--7-5--|
A|--3--3-3-3-3-3-3-3--3--3--3---||----7--7--5--7-5--|
E|------------------------------||--5-5--5--3--5-3--|
                                    x

Play intro riff twice, then singing starts:

[Intro riff]
Es war so schnell, wie alles begann,
ein fliegender Stein als Kampfsignal.

F
Auf einmal war die Holle los,
G
ein Wechselbad zwischen Angriff und Flucht.

[Intro riff]
Wasserwerfer peitschen dich,
Tranengas bei?t im Gesicht.

[Intro riff]
Schaufensterscheiben, nur noch Splitter aus Glas,
Wagen vollig ausgebrannt.

F
Befehl an alle: "Bleibt besser klug!
G
Schlie?t euch ein, macht die Augen zu!"

            C  Am F                 D  G
Und aus dem Radio kommt ein Liebeslied.
            C      Am    F                     D  G
Und in der Fernsehshow bringen sie ein Liebeslied.

[Intro riff]

[Intro riff]
Vor deiner Tur, in deinem Ort
ist Gerechtigkeit nur ein Wort.

F
Befehl an alle: "Bleibt besser klug!
G
Schlie?t euch ein, macht die Augen zu!"

            C  Am F                 D  G
Und aus dem Radio kommt ein Liebeslied.
            C      Am    F                     D  G
Und in der Fernsehshow bringen sie ein Liebeslied.
            C  Am F                 D  G
Und aus dem Radio kommt ein Liebeslied.
            C      Am    F                     D  G
Und in der Fernsehshow bringen sie ein Liebeslied.

Interlude:

Guitar 1:

e|----------------------------------------------------------------------|
B|----------------------------------------------------------------------|
G|----------------------------------------------------------------------|
D|--7~------------5--7~------------5--7~------------5--7~------------5--|
A|---------8---5------------8---5------------8---5------------8---5-----|
E|----------------------------------------------------------------------|

Guitar 2:

e|---------------------------------------------------------|
B|---------------------------------------------------------|
G|---------------------------------------------------------|
D|--7----------------7----------------3----------------5---|
A|--7----------------7----------------3----------------5---|
E|--5----------------5----------------1----------------3---|

Guitar 1:

e|-------------------------------------------------------------------------|
B|-------------------------------------------------------------------------|
G|--------------------------------------5-4-----5-4--9-7-10-9-12-10-14-12--|
D|--7~-----------5--7~-----------5--5-5-----5-5----------------------------|
A|--------8---5-----------8---5--------------------------------------------|
E|-------------------------------------------------------------------------|
                                    x x     x x

Guitar 2:

   P.M.---------------------------------------------|
e|----------------------------------------------------|
B|----------------------------------------------------|
G|----------------------------------------------------|
D|--777777777777777733333333333333335555555555555555--|
A|--777777777777777733333333333333335555555555555555--|
E|--555555555555555511111111111111113333333333333333--|

Solo (as played on the english version "Lovesong" from the album "Love, Peace & Money"):

Guitar 1:

e|--------8-------8-------8-------8-------8-------8-------8--------|
B|--------8-------8-------8-------8-------8-------8-------8--------|
G|--10b12---10b12---10b12---10b12---10b12---10b12---10b12---10b12--|
D|-----------------------------------------------------------------|
A|-----------------------------------------------------------------|
E|-----------------------------------------------------------------|

e|-----------------------------------10----12-----|
B|--5---7----8-----10----12----13----13b15-15b17--|
G|--7b9-9b11-10b12-12b14-14b16-15b17--------------|
D|------------------------------------------------|
A|------------------------------------------------|
E|------------------------------------------------|

Guitar 2 plays intro riff during the solo.

On the live album "Bis zum bitteren Ende" solo guitar is slightly different:

The end of the interlude goes like this:

e|-------------------------------------|
B|-------------------------------------|
G|--------5-4-----5-4-----5-4-----5-4--|
D|----5-5-----5-5-----5-5-----5-5------|
A|-------------------------------------|
E|-------------------------------------|
      x x     x x     x x     x x

And then:

e|--7/8-8-8-8-7/8-8-8-8-7/8-8-8-8-7/8-8-8-8--|
B|--7/8-8-8-8-7/8-8-8-8-7/8-8-8-8-7/8-8-8-8--|
G|-------------------------------------------|
D|-------------------------------------------|
A|-------------------------------------------|
E|-------------------------------------------|

and the second part of the intro riff is played.

Then:

[Intro riff]
Die Sonne scheint am Morgen danach,
wie ein Kuss beginnt der Tag.

F
Der Kaffee ist gut, die Zeitung frisch,
G
zahlt die Opfer am Fruhstuckstisch.

            C  Am F                 D  G
Und aus dem Radio kommt ein Liebeslied.
            C      Am    F                     D  G
Und in der Fernsehshow bringen sie ein Liebeslied.
            C  Am F                 D  G
Und aus dem Radio kommt ein Liebeslied.
            C      Am    F                     D  G
Und in der Fernsehshow bringen sie ein Liebeslied.
            C  Am F                 D  G  
Und aus dem Radio kommt ein Liebeslied.
            C      Am    F               D    G    C
Und in der Fernsehshow bringen sie unser Lied. 

| /  slide up
| \  slide down
| h  hammer-on
| p  pull-off
| ~  vibrato
| +  harmonic
| x  Mute note
===============================================================================
Tap to rate this tab
 
# A B C D E F G H I J K L M N O P Q R S T U V W X Y Z