Song name
# A B C D E F G H I J K L M N O P Q R S T U V W X Y Z

Die Toten Hosen - Boeser Wolf tab

Die Toten Hosen  -  Böser Wolf

[Intro]
   1. Gitarre: (2x)              
e |------0---2---0-------0---2---0-----|
H |----2---2---2---2---2---2---2---2---|
G |--2---------------1-----------------|
D |------------------------------------|
A |------------------------------------|
E |------------------------------------|

e |------2-------0-------0-----0-4-0---|
H |----2---2---2---2---0---0-0---------|
G |--2-------1-------------------------|
D |------------------4-----------------|
A |------------------------------------|
E |------------------------------------|

   2. Gitarre: (also in the verses 2.guitar lick!)
e |------------------4--5--------------|
H |-/5----7--5----7--------5-----------|
G |---------------------------7--6--4--|
D |------------------------------------|
A |------------------------------------|
E |------------------------------------|

e |------------------4--5--------------|
H |-/5----7/-5----7--------5--------5--|
G |---------------------------7--6-----|
D |------------------------------------|
A |------------------------------------|
E |------------------------------------|

[1.Strophe] (Barre-Griffe)
       A                  C#m
Sie malt gern Bilder von sich selbst
       D         A         G         E
Von riesengrossen Männern in einer Zwergenwelt
       A                  C#m
Sie weiss Geschichten, die sie nie erzählt
       D         A         G       E
Die meisten davon hat sie selber erlebt

[Refrain] (Barre-Griffe)
     D               F#m
Wie die vom bösen Wolf, der hin und wieder kommt
     Hm      C#m     D       E
und jedesmal danach von ihr verlangt
    D                F#m
Daß sie niemals ein Sterbens-Wörtchen sagt
     Hm        C#m     D          E  
weil er sie dafür sonst fürchterlich bestraft

[2.Strophe]
Wenn ihre Mami sie in den Arm nimmt
würde sie am liebsten weinen und alles gestehn.
Doch sie hat Angst und sie schämt sich.
Sie weiss keinen Rat und versucht wegzusehn.

[Refrain]
Wenn der Böse Wolf hin und wieder kommt
und mit festem Griff um ihren Hals verlangt
daß sie niemals ein Sterbenswörtchen sagt
weil er sie dafür sonst fürchterlich bestraft

[Solo]
2. Gitarre: (2x, same strumming like the verses)
Hm    F#m   Hm    F#m    D     C#m   E     (E)
   1. Gitarre:
E |--------------------7-----5--------------------------------------|
H |--7----7/2-----7-------7--------7---7/5----5---------------------|
G |-----------------------------------------------4----4------------|
D |-------------------------------------------------------7---6--4--|
A |-----------------------------------------------------------------|
E |-----------------------------------------------------------------|

E |-------7-----5--------10--9-7-9---5---5/4---4--------------------|
H |--7-------7------7----------------------------/5-----------------|
G |---------------------------------------------------4--4--4-------|
D |-----------------------------------------------------------7-6-4-|
A |-----------------------------------------------------------------|
E |-----------------------------------------------------------------|

[3.Strophe]
Sie ist so scheu, wie ein Reh
Man nimmt sie kaum wahr, denn sie redet nicht viel
Sie bleibt am liebsten für sich allein
Betet zu Gott und wünscht sich dabei

[Refrain]
daß der böse Wolf niemals wieder kommt
und mit festem Griff um ihren Hals verlangt
daß sie niemals ein Sterbenswörtchen sagt
weil er sie dafür sonst fürchterlich bestraft
daß sie niemals ein Sterbenswörtchen sagt
weil er sie dafür sonst fürchterlich bestraft
Tap to rate this tab
# A B C D E F G H I J K L M N O P Q R S T U V W X Y Z