Song name
# A B C D E F G H I J K L M N O P Q R S T U V W X Y Z

Die Toten Hosen - Tage Wie Dieser tab

Actually there are two guitars, one playing the melody, the other one playing the
bassline. In these tabs I arranged to play both parts with one guitar, so you have the bass
line combined with the riff. The riff is played palm-muted and with an intensive delay, 
that repeats the tone just one time. You should listen to the song, so you can tap out the
delay time (quite short).
In the refrain you can play power chords, but without delay.


Riff


   D
------------------------------------------------------------------------|
----------3--3--2--2--2--2------------------3--3--2--2--2--2------------|
----------------------------2--2------------------------------2--2------|
---0--0--------------------------------0--0-----------------------------|
------------------------------------------------------------------------|
------------------------------------------------------------------------|

                                               <-- repeat the first time
---------------------------------------------------------------|
---------------------------------------------------------------|
---2h4--4--4--4--4p2-------------2h4--4--4--4--4p2-------------|
---0-------0-----0---------------0-------0-----0---------------|
---------------------------------------------------------------|
---------------------------------------------------------------|

   Bm
--------------------------------------------------------------------------|
---------3--3--2--2--2--2----------------------3--3--2--2--2--2-----------|
-----------------------------2--2----------------------------------2--2---|
--------------------------------------------------------------------------|
---2--2----------------------------------2--2-----------------------------|
--------------------------------------------------------------------------|

   G                   *
--------------------------------------------------------------|
--------------------------------------------------------------|
---2h4--4--4--4--4p2---------2h4--4--4--4--4p2----------------|
---5-------5-----5-----------5-------5-----5------------------|
--------------------------------------------------------------|
--------------------------------------------------------------|

   C9                                 G/B
----------3--3--2--2--2--2--2h3-------------3--3--2--2--2--2--2h3--|
-------------------------------------------------------------------|
-------------------------------------------------------------------|
-------------------------------------------------------------------|
---3--3-------------------------------2--2-------------------------|
-------------------------------------------------------------------|

   D
----------5--5--5--5--5--5--3p2------------5--5--5--5--5--5--3p2-------|
-----------------------------------------------------------------------|
-----------------------------------------------------------------------|
---0--0------------------------------0--0------------------------------|
-----------------------------------------------------------------------|
-----------------------------------------------------------------------|

    C9                                G/B
----------3--3--2--2--2--2--2h3-------------3--3--2--2--2--2--2h3--|
-------------------------------------------------------------------|
-------------------------------------------------------------------|
-------------------------------------------------------------------|
---3--3-------------------------------2--2-------------------------|
-------------------------------------------------------------------|

   D
------------------------------------------------------------------------|
----------3--3--2--2--2--2-------------------3--3--3/5--5--5--5/7-------|
----------------------------2--2----------------------------------------|
------------------------------------------------------------------------|
---0--0---------------------------------0--0----------------------------|
------------------------------------------------------------------------|


Refrain

             D                          G
An Tagen wie diesen, wünscht man sich Unendlichkeit
              Em                    G
An Tagen wie diesen, haben wir noch ewig Zeit
A                D
Wünsch ich mir Unendlichkeit

(Riff)

Refrain

              D                         G
An Tagen wie diesen, wünscht man sich Unendlichkeit
              Em                     G
An Tagen wie diesen, haben wir noch ewig Zeit
                    C      G                    D
In dieser Nacht der Nächte, die uns so viel verspricht
                 C     G                  D
Erleben wir das Beste, kein Ende ist in Sicht


(Riff to *, then A)


Refrain

Fade out
Tap to rate this tab
# A B C D E F G H I J K L M N O P Q R S T U V W X Y Z