Song name
# A B C D E F G H I J K L M N O P Q R S T U V W X Y Z

Die Toten Hosen - Ballast Der Republik tab

Hier kommt das Intro zu Ballast der Republik.
Zumindest ist es ein Anfang ;)


  C#m            A          E          F#m      C#m          A       F#m
E|-----------------------------------------|------------------------------|
B|-----------------------------------------|------------------------------|
G|--------------------6p4------------------|--------------------6--6-7b-6-|
D|---6---6---4h6--7--7------6---4---6p4----|--6---6---4h6-7b--7---7-------|
A|---------------------------------------4-|------------------------------|
E|-----------------------------------------|------------------------------|


  C#m         A          E      F#m  C#m              A        F#m 
E|----------------------------------|-------------------------------------|
B|------------5--5--7p5-------------|-----------------5---5--7p5--7-------|
G|-6---6--4h6------------4---4----4-|-6---6---6--4h6----------------6b-6b-|
D|-----------------------------6----|-------------------------------------|
A|----------------------------------|-------------------------------------|
E|----------------------------------|-------------------------------------|

B.Z.B.E!!!
Tap to rate this tab
# A B C D E F G H I J K L M N O P Q R S T U V W X Y Z