Song name
# A B C D E F G H I J K L M N O P Q R S T U V W X Y Z

Die Toten Hosen - Heute Hier Morgen Dort tab

heute hier, morgen dort


die toten hosen


TRANSCRIBED BY RUDY GUZMAN


guzman_84@hotmail.com



   1 step down
                                               
eb:----------------------------------------|
Bb:----8-8-8-----8-8-8-----8-8-8-----8-8-8-|
Gb:-7--7-7-7--7--7-7-7--7--7-7-7--7--7-7-7-|
Db:-5--5-5-5--5--5-5-5--5--5-5-5--5--5-5-5-|
Ab:----------------------------------------|
Eb:----------------------------------------|

    Heute hier morgen dort   bin kaum da muss ich fort hab mich niemals
eb:------------------------7-7-7---------------------|
Bb:----8-8-8-----8-8-8--7--7-7-7-----8-8-8-----8-8-8-|
Gb:-7--7-7-7--7--7-7-7--4--4-4-4--7--7-7-7--7--7-7-7-|
Db:-5--5-5-5--5--5-5-5------------5--5-5-5--5--5-5-5-|
Ab:--------------------------------------------------|
Eb:--------------------------------------------------|

    deswegen beklagt hab es selbst so gewählt
eb:------------------------------|
Bb:----5-5-5-----7-7-7-----7-7-7-|
Gb:-4--4-4-4--7--7-7-7--7--7-7-7-|
Db:-2--2-2-2--7--7-7-7--7--7-7-7-|
Ab:-----------5--5-5-5--5--5-5-5-|
Eb:------------------------------|

    nie die Jahre gezählt  nie nach
eb:------------------------7-7-7---------------------|
Bb:----8-8-8-----8-8-8--7--7-7-7-----8-8-8-----8-8-8-|
Gb:-7--7-7-7--7--7-7-7--4--4-4-4--7--7-7-7--7--7-7-7-|
Db:-5--5-5-5--5--5-5-5------------5--5-5-5--5--5-5-5-|
Ab:--------------------------------------------------|
Eb:--------------------------------------------------|

    gestern und morgen 
eb:------------------------------|
Bb:----5-5-5-----7-7-7-----7-7-7-|
Gb:-4--4-4-4--7--7-7-7--7--7-7-7-|
Db:-2--2-2-2--7--7-7-7--7--7-7-7-|
Ab:-----------5--5-5-5--5--5-5-5-|
Eb:------------------------------|

   gefragt
eb:--------------------|
Bb:----8-8-8-----8-8-8-|
Gb:-7--7-7-7--7--7-7-7-|
Db:-5--5-5-5--5--5-5-5-|
Ab:--------------------|
Eb:--------------------|
 
    Manchmal träume ich schwer und dann denk ich  es wär
eb:------------------------7-7-7---------------------|
Bb:----7-7-7-----7-7-7--7--7-7-7-----8-8-8-----8-8-8-|
Gb:-7--7-7-7--7--7-7-7--4--4-4-4--7--7-7-7--7--7-7-7-|
Db:-7--7-7-7--7--7-7-7------------5--5-5-5--5--5-5-5-|
Ab:-5--5-5-5--5--5-5-5-------------------------------|
Eb:--------------------------------------------------|

    Zeit zu bleiben und nun was ganz andres zu tun
eb:------------------------7-7-7---------------------|
Bb:----7-7-7-----7-7-7--7--7-7-7-----8-8-8-----8-8-8-|
Gb:-7--7-7-7--7--7-7-7--4--4-4-4--7--7-7-7--7--7-7-7-|
Db:-7--7-7-7--7--7-7-7------------5--5-5-5--5--5-5-5-|
Ab:-5--5-5-5--5--5-5-5-------------------------------|
Eb:--------------------------------------------------|

   So vergeht Jahr um Jahr und es ist mir längst klar
eb:------------------------7-7-7---------------------|
Bb:----8-8-8-----8-8-8--7--7-7-7-----8-8-8-----8-8-8-|
Gb:-7--7-7-7--7--7-7-7--4--4-4-4--7--7-7-7--7--7-7-7-|
Db:-5--5-5-5--5--5-5-5------------5--5-5-5--5--5-5-5-|
Ab:--------------------------------------------------|
Eb:--------------------------------------------------|

    dass nichts bleibt, dass nichts bleibt wie es war
   gt1
eb:---------------------------------|
Bb:----5-5-5-----7-7-7-----8-8-8----|
Gb:-4--4-4-4--7--7-7-7--7--7-7-7--7-|
Db:-2--2-2-2--7--7-7-7--5--5-5-5--5-|
Ab:-----------5--5-5-5--------------|
Eb:---------------------------------|
   gt2  fdbk
eb:-----------------------|
Bb:------------1--0-0-0-0-|
Gb:------------0--0-0-0-0-|
Db:------------0--0-0-0-0-|
Ab:-----------------------|
Eb:-1h3-------------------|

   Dass man mich kaum vermisst schon nach Tagen vergisst wenn ich längst 
eb:-------------------------------------------------------------|
Bb:-------------------------------------------------------------|
Gb:------------------------5-5-5--------------------------------|
Db:----5-5-5-----5-5-5--5--5-5-5-----5-5-5-----5-5-5-----5-5-5--|
Ab:-5--5-5-5--5--5-5-5--3--3-3-3--5--5-5-5--5--5-5-5--5--5-5-5--|
Eb:-3--3-3-3--3--3-3-3------------3--3-3-3--3--3-3-3--3--3-3-3--|

   wieder anderswo bin
eb:------------------------------|
Bb:------------------------------|
Gb:----9-9-9-----7-7-7-----7-7-7-|
Db:-9--9-9-9--7--7-7-7--7--7-7-7-|
Ab:-7--7-7-7--5--5-5-5--5--5-5-5-|
Eb:------------------------------|

    stört und kümmert mich nicht Vielleicht bleibt mein Gesicht
eb:--------------------------------------------------|
Bb:--------------------------------------------------|
Gb:------------------------5-5-5---------------------|
Db:----5-5-5-----5-5-5--5--5-5-5-----5-5-5-----5-5-5-|
Ab:-5--5-5-5--5--5-5-5--3--3-3-3--5--5-5-5--5--5-5-5-|
Eb:-3--3-3-3--3--3-3-3------------3--3-3-3--3--3-3-3-|

   doch dem ein oder andern im Sinn
eb:--------------------------------------------------|
Bb:--------------------------------------------------|
Gb:----9-9-9-----7-7-7-----7-7-7---------------------|
Db:-9--9-9-9--7--7-7-7--7--7-7-7-----5-5-5-----5-5-5-|
Ab:-7--7-7-7--5--5-5-5--5--5-5-5--5--5-5-5--5--5-5-5-|
Eb:-------------------------------3--3-3-3--3--3-3-3-|


    Manchmal träume ich schwer und dann denk ich es wär
eb:--------------------------------------------------|
Bb:--------------------------------------------------|
Gb:----7-7-7-----7-7-7-----5-5-5---------------------|
Db:-7--7-7-7--7--7-7-7--5--5-5-5-----5-5-5-----5-5-5-|
Ab:-5--5-5-5--5--5-5-5--3--3-3-3--5--5-5-5--5--5-5-5-|
Eb:-------------------------------3--3-3-3--3--3-3-3-|

    Zeit zu bleiben und nun was ganz andres zu tun
eb:--------------------------------------------------|
Bb:--------------------------------------------------|
Gb:----7-7-7-----7-7-7-----5-5-5---------------------|
Db:-7--7-7-7--7--7-7-7--5--5-5-5-----5-5-5-----5-5-5-|
Ab:-5--5-5-5--5--5-5-5--3--3-3-3--5--5-5-5--5--5-5-5-|
Eb:-------------------------------3--3-3-3--3--3-3-3-|

    So vergeht Jahr um Jahr und es ist mir längst klar 
eb:--------------------------------------------------|
Bb:--------------------------------------------------|
Gb:------------------------5-5-5---------------------|
Db:----5-5-5-----5-5-5--5--5-5-5-----5-5-5-----5-5-5-|
Ab:-5--5-5-5--5--5-5-5--3--3-3-3--5--5-5-5--5--5-5-5-|
Eb:-3--3-3-3--3--3-3-3------------3--3-3-3--3--3-3-3-|

   dass nichts bleibt dass nichts bleibt wie es war
eb:--------------------------------------------------|
Bb:--------------------------------------------------|
Gb:----9-9-9-----7-7-7-----7-7-7---------------------|
Db:-9--9-9-9--7--7-7-7--7--7-7-7-----5-5-5-----5-5-5-|
Ab:-7--7-7-7--5--5-5-5--5--5-5-5--5--5-5-5--5--5-5-5-|
Eb:-------------------------------3--3-3-3--3--3-3-3-|

   solo   
eb:---------------------------------------------------------------------------|
Bb:---------------------------5---5-3--3-3--3-3--3-3--3-3--3-3--5-5--5-5--5-5-|
Gb:--------4-------------7----------------------------------------------------|
Db:-5~~~~----7----5~~~--------------------------------------------------------|
Ab:---------------------------------------------------------------------------|
Eb:---------------------------------------------------------------------------|

eb:------------------------------------|
Bb:-3-3-----3-3--3-3--3-3--3-3---------|
Gb:-----4-4--------------------4-------|
Db:------------------------------5-----|
Ab:------------------------------------|
Eb:------------------------------------|

    Fragt mich einer warum ich so bin, bleib ich stumm
eb:-------------------------------------------------------------|
Bb:-------------------------------------------------------------|
Gb:-------------------------------------------------------------|
Db:---------------------5---------------------------------------|
Ab:-5-------------------3---------5-------------------5---------|
Eb:-3-----------------------------3-------------------3---------|

   denn die Antwort darauf fällt mir schwer
eb:--------------------|
Bb:--------------------|
Gb:--------------------|
Db:-9----------------7-|
Ab:-7----------------5-|
Eb:--------------------|

    Denn was neu ist  wird alt und was gestern noch galt
eb:-------------------------------------------------------------|
Bb:-------------------------------------------------------------|
Gb:-------------------------------------------------------------|
Db:---------------------5-----------------------------9---------|
Ab:-5-------------------3---------5-------------------7---------|
Eb:-3-----------------------------3-----------------------------|

   stimmt schon heut oder morgen nicht mehr
eb:--------------------|
Bb:--------------------|
Gb:--------------------|
Db:-7------------------|
Ab:-5----------------5-|
Eb:------------------3-|

    Manchmal träume ich schwer und dann denk ich es wär
eb:--------------------------------------------------|
Bb:--------------------------------------------------|
Gb:----7-7-7-----7-7-7-----5-5-5---------------------|
Db:-7--7-7-7--7--7-7-7--5--5-5-5-----5-5-5-----5-5-5-|
Ab:-5--5-5-5--5--5-5-5--3--3-3-3--5--5-5-5--5--5-5-5-|
Eb:-------------------------------3--3-3-3--3--3-3-3-|

    Zeit zu bleiben und nun was ganz andres zu tun
eb:--------------------------------------------------|
Bb:--------------------------------------------------|
Gb:----7-7-7-----7-7-7-----5-5-5---------------------|
Db:-7--7-7-7--7--7-7-7--5--5-5-5-----5-5-5-----5-5-5-|
Ab:-5--5-5-5--5--5-5-5--3--3-3-3--5--5-5-5--5--5-5-5-|
Eb:-------------------------------3--3-3-3--3--3-3-3-|

    So vergeht Jahr um Jahr und es ist mir längst klar dass nichts bleibt
eb:-------------------------------------------------------------|
Bb:-------------------------------------------------------------|
Gb:------------------------5-5-5-------------------------9-9-9--|
Db:----5-5-5-----5-5-5--5--5-5-5-----5-5-5-----5-5-5--9--9-9-9--|
Ab:-5--5-5-5--5--5-5-5--3--3-3-3--5--5-5-5--5--5-5-5--7--7-7-7--|
Eb:-3--3-3-3--3--3-3-3------------3--3-3-3--3--3-3-3------------|

   dass nichts bleibt wie es war
eb:------------------------------|
Bb:------------------------------|
Gb:----7-7-7---------------------|
Db:-7--7-7-7-----5-5-5-----5-5-5-|
Ab:-5--5-5-5--5--5-5-5--5--5-5-5-|
Eb:-----------3--3-3-3--3--3-3-3-|

    So vergeht Jahr um Jahr und es ist mir längst klar dass nichts bleibt
eb:-------------------------------------------------------------|
Bb:-------------------------------------------------------------|
Gb:------------------------5-5-5-------------------------9-9-9--|
Db:----5-5-5-----5-5-5--5--5-5-5-----5-5-5-----5-5-5--9--9-9-9--|
Ab:-5--5-5-5--5--5-5-5--3--3-3-3--5--5-5-5--5--5-5-5--7--7-7-7--|
Eb:-3--3-3-3--3--3-3-3------------3--3-3-3--3--3-3-3------------|

   dass nichts bleibt wie es war
eb:------------------------------|
Bb:------------------------------|
Gb:----7-7-7---------------------|
Db:-7--7-7-7-----5-5-5-----5-5-5-|
Ab:-5--5-5-5--5--5-5-5--5--5-5-5-|
Eb:-----------3--3-3-3--3--3-3-3-|

    dass nichts bleibt wie es war
eb:----------------------------------------------|
Bb:----------------------------------------------|
Gb:----9-9-9-----7-7-7--------5------------------|
Db:-9--9-9-9--7--7-7-7--------5----------------5-|
Ab:-7--7-7-7--5--5-5-5--------3----------------5-|
Eb:--------------------------------------------3-|





hillo son mex

20/01/13
Tap to rate this tab
# A B C D E F G H I J K L M N O P Q R S T U V W X Y Z