Song name
# A B C D E F G H I J K L M N O P Q R S T U V W X Y Z

Die Toten Hosen - Ballast Der Republik tab

Band: Die Toten Hosen
Song: Ballast der Republik
Album: Ballast der Republik

Tuning: Standart

INTRO

E|----------------------------------------------------|
B|----------------------------------------------------|
G|------------6-4-------------------------6---6-6b-6~-|
D|6-6-4-6-7-7-----6-4-6-4-----6-6-4-6-7-7---7---------|
A|------------------------4~--------------------------|
E|----------------------------------------------------|

E|----------------------------------------------------|
B|--------5-5-7-5----------------------5-5-7-5-7------|
G|6-6-4-6---------4-4---4-6~---6-6-4-6-----------6~---|
D|--------------------6-------------------------------|
A|----------------------------------------------------|
E|----------------------------------------------------|


[VERSE]
        Part 1     |    Part 2
E|-----------------|------------------------------------|
B|-----------------|----------------|       |        ---|
G|------9----------|----------------|2x     |PICKSLIDE--|
D|9-9-9-9-9-9-9-11-|-9---9-9-11--9--|       |        ---|
A|9-9-9-7-9-9-9-11-|-9---9-9-11--9----------------------|
E|7-7-7---7-7-7-9--|-7---7-7-9---7----------------------|


[CHORUS]

E|----------------------------|
B|----------------------------|
G|-------------6------4-------|
D|7-----4------x(x16)-x(x16)--|(x2)
A|7(x16)4(x16)-4------2-------|
E|5-----2---------------------|


________________VERSE(Part 2)__________________

___________________CHORUS______________________


[BRIDGE]

E|--------------------------------------|
B|--------------------------------------|
G|------6-----4-------------------------|
D|7-----6(x8)-4(x8)-4-----7------9------|
A|7(x8)-4-----2-----4(x8)-7(x16)-9(x16)-|
E|5-----------------2-----5------7------|


SOLO = INTRO

Rythm under the Solo:

E|--------------------------------------------------------|
B|--------------------------------------------------------|
G|6-----------------------6-----------------4------4-4-6--|
D|6(x8)-7-----2-----4-----6(x8)-7-----4-----4(8x)--4-4-6--|
A|4-----7(x8)-2(x8)-4(x8)-4-----7(x8)-4(x8)-2------2-2-4--|
E|------5-----0-----2-----------5-----2-------------------|

________________VERSE(Part 2)_________________

Then:

E|---------------------------------------------|
B|---------------------------------------------|
G|------6-----4------------------6-----4-------|
D|7-----6(x8)-4(x8)-4-----7------6(x8)-4(x16)--|
A|7(x8)-4-----2-----4(x8)-7(x8)--4-----2-------|
E|5-----------------2-----5--------------------|

__________________BRIDGE______________________

END

E|--------------|
B|--------------|
G|6-66-6-66-6-6-|
D|6-66-6-66-6-6-|
A|4-44-4-44-4-4-|
E|--------------|

PM  ..   ..   .

Ends on:

E|---------------|
B|---------------|
G|6--------------|
D|6(slide down)--|
A|4--------------|
E|---------------|

ENJOI!

Tabbet by:

TheFlyKilian

Email:

kr.boom@gmx.de

Kleine Fehler bei der Anschlghäufigkeit!
Tap to rate this tab
 
# A B C D E F G H I J K L M N O P Q R S T U V W X Y Z