Song name
# A B C D E F G H I J K L M N O P Q R S T U V W X Y Z

Die Toten Hosen - Nur Zu Besuch tab

Nur zu Besuch
Die Toten Hosen


Standard tuning: E, A, D, g, b, e

Intro:

e |------------------|----------------------|------------------|----------------------|
b |------------------|----------------------|------------------|----------------------|
g |------0-----0-----|------0-----0---------|------0-----0-----|------0-----0---------|
D |----5-----5-----5-|----5-----5-----5-----|----5-----5-----5-|----5-----5-----5-----|
A |--3-----3-----3---|--3-----3-----3-------|--3-----3-----3---|--3-----3-----3-------|
E |------------------|----------------------|------------------|----------------------|


Strophe 1:

e |------------------|----------------------|------------------|----------------------|
b |------------------|----------------------|------------------|----------------------|
g |------0-----0-----|------0-----0---------|------0----0------|-----0-----0----------|
D |----5-----5-----5-|----5-----5-----5-----|----3----3-----3--|---3-----3-----3------|
A |--3-----3-----3---|--3-----3-----3-------|--1-----1-----1---|--1-----1-----1-------|
E |------------------|----------------------|------------------|----------------------|

e |------------------|----------------------|
b |------------------|----------------------|
g |---------0--------|---------0------------|
D |----3-------------|----3-----------------|
A |---3---3---3------|---3---3----3---------|
E |--1---1----1------|--1---1----1----------|

e |------------------|----------------------|------------------|----------------------|
b |------------------|----------------------|------------------|----------------------|
g |------0-----0-----|------0-----0---------|------0----0------|-----0-----0----------|
D |----5-----5-----5-|----5-----5-----5-----|----3----3-----3--|---3-----3-----3------|
A |--3-----3-----3---|--3-----3-----3-------|--1-----1-----1---|--1-----1-----1-------|
E |------------------|----------------------|------------------|----------------------|

e |------------------|----------------------|
b |------------------|----------------------|
g |---------0--------|---------0------------|
D |----3-------------|----3-----------------|
A |---3---3---3------|---3---3----3---------|
E |--1---1----1------|--1---1----1----------|


Zwischenspiel:

e |------------------|----------------------|
b |------------------|----------------------|
g |------0-----0-----|------0-----0---------|
D |----5-----5-----5-|----5-----5-----5-----|
A |--3-----3-----3---|--3-----3-----3-------|
E |------------------|----------------------|


Pre-Chorus:

e |------------------|----------------------|------------------|--------------|
b |------------------|----------------------|------------------|--------------|
g |---------5--------|---------7------------|----5---5---------|----5---5-----|
D |-----6-------6----|-----8-------8--------|---5---5---5------|---5---5---5--|
A |---6---6---6---6--|---8---8---8---8------|--3---3---3-------|--3---3---3---|
E |--4---------------|--6-------------------|------------------|--------------|


Strophe 2:

e |------------------|----------------------|------------------|----------------------|
b |------------------|----------------------|------------------|----------------------|
g |------0-----0-----|------0-----0---------|------0----0------|-----0-----0----------|
D |----5-----5-----5-|----5-----5-----5-----|----3----3-----3--|---3-----3-----3------|
A |--3-----3-----3---|--3-----3-----3-------|--1-----1-----1---|--1-----1-----1-------|
E |------------------|----------------------|------------------|----------------------|

e |------------------|----------------------|
b |------------------|----------------------|
g |---------0--------|---------0------------|
D |----3-------------|----3-----------------|
A |---3---3---3------|---3---3----3---------|
E |--1---1----1------|--1---1----1----------|

e |------------------|----------------------|------------------|----------------------|
b |------------------|----------------------|------------------|----------------------|
g |------0-----0-----|------0-----0---------|------0----0------|-----0-----0----------|
D |----5-----5-----5-|----5-----5-----5-----|----3----3-----3--|---3-----3-----3------|
A |--3-----3-----3---|--3-----3-----3-------|--1-----1-----1---|--1-----1-----1-------|
E |------------------|----------------------|------------------|----------------------|

e |------------------|----------------------|
b |------------------|----------------------|
g |---------0--------|---------0------------|
D |----3-------------|----3-----------------|
A |---3---3---3------|---3---3----3---------|
E |--1---1----1------|--1---1----1----------|


Zwischenspiel:

e |------------------|----------------------|
b |------------------|----------------------|
g |------0-----0-----|------0-----0---------|
D |----5-----5-----5-|----5-----5-----5-----|
A |--3-----3-----3---|--3-----3-----3-------|
E |------------------|----------------------|


Pre-Chorus:

e |------------------|----------------------|------------------|--------------|
b |------------------|----------------------|------------------|--------------|
g |---------5--------|---------7------------|----5---5---------|----5---5-----|
D |-----6-------6----|-----8-------8--------|---5---5---5------|---5---5---5--|
A |---6---6---6---6--|---8---8---8---8------|--3---3---3-------|--3---3---3---|
E |--4---------------|--6-------------------|------------------|--------------|


Chorus:

e|--x--x----x--|--x--x--x--x--x--x--x--x|--x--x--x--x--x--x--x--x--|
h|--x--x----x--|--x--x--x--x--x--x--x--x|--x--x--x--x--x--x--x--x--|
g|--5--7----8--|--8--8--8--8--8--8--8--8|--3--3--3--3--3--3--3--3--|
D|--5--7----8--|--8--8--8--8--8--8--8--8|--3--3--3--3--3--3--3--3--|
A|--3--5----6--|--6--6--6--6--6--6--6--6|--1--1--1--1--1--1--1--1--|
E|--x--x----x--|--x--x--x--x--x--x--x--x|--x--x--x--x--x--x--x--x-

      (C3  D3)      Eb                                                                    Bb
       Und so       red     ich   mit  dir   wie           immer,        so als ob es wie früher wär,


        Cm         Ab         Bb
 so als hätten wir jede Menge Zeit. 
               Eb
 Ich spür dich ganz nah hier bei mir,
             Bb
 kann deine Stimme im Wind hören
             Cm                Ab               Bb
 und wenn es regnet, weiß ich, dass du manchmal weinst,
                C
 bis die Sonne scheint; bis sie wieder scheint. 

                                  ------------------- Play this with power tabs!

Strophe 1:

e |------------------|----------------------|------------------|----------------------|
b |------------------|----------------------|------------------|----------------------|
g |------0-----0-----|------0-----0---------|------0----0------|-----0-----0----------|
D |----5-----5-----5-|----5-----5-----5-----|----3----3-----3--|---3-----3-----3------|
A |--3-----3-----3---|--3-----3-----3-------|--1-----1-----1---|--1-----1-----1-------|
E |------------------|----------------------|------------------|----------------------|

e |------------------|----------------------|
b |------------------|----------------------|
g |---------0--------|---------0------------|
D |----3-------------|----3-----------------|
A |---3---3---3------|---3---3----3---------|
E |--1---1----1------|--1---1----1----------|

e |------------------|----------------------|------------------|----------------------|
b |------------------|----------------------|------------------|----------------------|
g |------0-----0-----|------0-----0---------|------0----0------|-----0-----0----------|
D |----5-----5-----5-|----5-----5-----5-----|----3----3-----3--|---3-----3-----3------|
A |--3-----3-----3---|--3-----3-----3-------|--1-----1-----1---|--1-----1-----1-------|
E |------------------|----------------------|------------------|----------------------|

e |------------------|----------------------|
b |------------------|----------------------|
g |---------0--------|---------0------------|
D |----3-------------|----3-----------------|
A |---3---3---3------|---3---3----3---------|
E |--1---1----1------|--1---1----1----------|


Zwischenspiel:

e |------------------|----------------------|
b |------------------|----------------------|
g |------0-----0-----|------0-----0---------|
D |----5-----5-----5-|----5-----5-----5-----|
A |--3-----3-----3---|--3-----3-----3-------|
E |------------------|----------------------|


Pre-Chorus:

e |------------------|----------------------|------------------|--------------|
b |------------------|----------------------|------------------|--------------|
g |---------5--------|---------7------------|----5---5---------|----5---5-----|
D |-----6-------6----|-----8-------8--------|---5---5---5------|---5---5---5--|
A |---6---6---6---6--|---8---8---8---8------|--3---3---3-------|--3---3---3---|
E |--4---------------|--6-------------------|------------------|--------------|


Chorus:

e|--x--x----x--|--x--x--x--x--x--x--x--x|--x--x--x--x--x--x--x--x--|
h|--x--x----x--|--x--x--x--x--x--x--x--x|--x--x--x--x--x--x--x--x--|
g|--5--7----8--|--8--8--8--8--8--8--8--8|--3--3--3--3--3--3--3--3--|
D|--5--7----8--|--8--8--8--8--8--8--8--8|--3--3--3--3--3--3--3--3--|
A|--3--5----6--|--6--6--6--6--6--6--6--6|--1--1--1--1--1--1--1--1--|
E|--x--x----x--|--x--x--x--x--x--x--x--x|--x--x--x--x--x--x--x--x-

      (C3  D3)      Eb                                                                    Bb
       Und so       red     ich   mit  dir   wie           immer,        so als ob es wie früher wär,


        Cm         Ab         Bb
 so als hätten wir jede Menge Zeit. 
               Eb
 Ich spür dich ganz nah hier bei mir,
             Bb
 kann deine Stimme im Wind hören
             Cm                Ab               Bb
 und wenn es regnet, weiß ich, dass du manchmal weinst,
                C
 bis die Sonne scheint; bis sie wieder scheint. 

                                  ------------------- Play this with power tabs!


Outro:

e |------------------|----------------------|--0--|
b |------------------|----------------------|--1--|
g |------0-----0-----|------0-----0---------|--0--|
D |----5-----5-----5-|----3-----3-----3-----|--2--|
A |--3-----3-----3---|--3-----3-----3-------|--3--|
E |------------------|----------------------|-----|

Tap to rate this tab
# A B C D E F G H I J K L M N O P Q R S T U V W X Y Z