Song name
# A B C D E F G H I J K L M N O P Q R S T U V W X Y Z

Die Toten Hosen - Auswartspiel tab

Help us improve GuitareTab! Take a short survey!
Title: Ausw?rtsspiel
Artist: Die Toten Hosen
Album: Ausw?rtsspiel

Intro:
e|----------------------|
b|----------------------|
g|----------------------|
d|---5555555555555555---|
a|---5555555555555555---|
E|---3333333333333333---|
Verse1
     Mach das flutlicht an ,sie????
e|--------------------------------------------|
b|--------------------------------------------|
g|-------------88888888-----------------------| play 4 times
d|---55555555--88888888-33333333--------------|
a|---55555555--66666666-33333333--------------|
E|---33333333-----------11111111--------------|
Then
verse2
    Ihr k?nnt uns fragen so oft und so......
e|--------------------------------|
b|--------------------------------|
g|---33333333---------------------|play 2 times
d|---33333333-33333333-55555555---|
a|---11111111-33333333-55555555---|
E|------------11111111-33333333---|

Chorus:
Ole ole ole ola uns ist egal wer......        Break:
e|--------------------------------------     e|--------------------|
b|--------------------------------------     b|--------------------|
g|---------------------33333333-55555555     g|--------------------|
d|---55555555-33333333-33333333-55555555     d|---5555555555555555-| Achtel pause
a|---55555555-33333333-11111111-33333333     a|---5555555555555555-|
E|---33333333-11111111------------------     E|---3333333333333333-|

 Solo:1.guitar                        behind the solo:2.Guitar
e|------------------|--------13/15-  e|--------------|
b|------------------|-13--13-------  b|--------------|
g|---12--12---14-15-|---12---------  g|------8--5--3-|
d|-----12-----------|--------------  d|---5--8--5--3-|  play 2 times
a|------------------|--------------  a|---5--6--3--1-|
E|------------------|--------------  E|---3----------|
  <    3times     >   then this

Drumsolo:both guitars
e|--------------------|
b|--------------------|
g|--------3---------8-|
d|---5----3----3----8-|
a|---5----1----3----6-|
E|---3---------1------|

Outro:
e|--------------------|
b|--------------------|
g|--------------------| End!!!!
d|---5555555555555555-|
a|---5555555555555555-|
E|---3333333333333333-|

Intro
Verse1 4x
Verse2 2x
Chorus 2x
Break  1x
Verse1 2x
Verse2 2x
Chorus 2x
Solo
Drumsolo with back guitar
Chorus 2x
Verse2 2x PM
Chorus 4x
Outro
Related for Auswartspiel tab