Song name
# A B C D E F G H I J K L M N O P Q R S T U V W X Y Z

Die Toten Hosen - Ich Bin Die Sehnsucht In Dir tab

Ich bin die Sehnsucht in dir 


Dropped D Tuning!


[Intro]


   Part 1
E |---------------------------------|
H |---------------------------------|
G |-------2-----0-------0-----------|
D |-----0-----0---0---0---0-----4-0-|
A |---0-----1-------2-------1/5-----|
D |-0-------------------------------|

E |---------------------------------|
H |-----------------------------2-3-|
G |-------2-----0-------0-----2-----|
D |-----0-----0---0---0-----3-------|
A |---0-----1-------2-----4---------|
D |-0-------------------------------|


[1.Strophe]

1x Part 1

   Part 2
E |:-------------------------------------:|
H |:---------6-----5---------5-----3-----:|
G |:-------2*----2-----2---2-----0-----0-:|
D |:-------------------------------------:|
A |:-(4/)5-----4-----4---3-----2-----2---:|
D |:-------------------------------------:|

1x Part 1

   Part 3
E |:-------------------------------------:|
H |:--------------(5/)6----------------3-:|
G |:-----7--(6/)7-------------3---3----0-:|
D |:-------------------------------------:|
A |:-5-5---5-5----(6/)8---1-1---1--(0)---:|
D |:--------------------------------0----:|


[Refrain]

   Part 4
E |:------------------------|--------------------------:|
H |:------------------------|--------------------------:|
G |:-5-h7--(7/)8--8\7--5----|-5-h7--(7/)8--8\7---------:|
D |:---------------------8--|-------------------5---8*-:|
A |:------------------------|--------------------------:|
D |:------------------------|--------------------------:|

  * erst bei der Wiederholung spielen


[Zwischenspiel]

2x Part 1


[2.Strophe]

1x Part 1
2x Part 2


[Bridge]

   Part 5	
E |:-------------------------------------------------------:|
H |:---------------------------------------------------6-6-:|
G |:-7-7-7-7-7---7-7-7-7---------3-3-3-3-3---3-3-3-3---7-7-:|
D |:-7-7-7-7-7---7-7-7-7---3-3---3-3-3-3-3---3-3-3-3---7-7-:|
A |:-5-5-5-5-5---5-5-5-5---3-3---1-1-1-1-1---1-1-1-1---5-5-:|
D |:-0-0-0-0-0---0-0-0-0---3-3-----------------------------:|


[Refrain]

Sologitarre: 2x Part 4

Begleitgitarre (alles Powerchords ausser Dm):

|: F - C - G - G  |  F - C - G - Dm :|


[Zwischenspiel]

   Part 6
E |-----6-----5---------5-----2-----|
H |---3-----3-----3-----------------|
G |-------------------5-----5-----5-|
D |-5-----4-----4---3-----2---------|  4x
A |---------------------------------|
D |---------------------------------|

   Zweite Gitarre zu Part 6, setzt beim 3ten Durchgang ein
E |-------------------------------------|
H |-------------------------------------|
G |-------------------------------------|
D |---------------5--7--7b(8)---7--5----|
A |---5--------5---------------------6--|
D |-7-----------------------------------|

E |-------------------------------------|
H |-------------------------------------|
G |-------------------------------------|
D |---------------5--7--7b(8)---7----6--|
A |---5--------5-------------------7----|
D |-7-----------------------------------|


[Refrain]


[Bridge]

2x Part 5


[3.Strophe]


   End:
E |--------|
H |--------|
G |----7---|
D |---7----|
A |--5-----|
D |-0------|
Tap to rate this tab
 
# A B C D E F G H I J K L M N O P Q R S T U V W X Y Z