Song name
# A B C D E F G H I J K L M N O P Q R S T U V W X Y Z

Die Toten Hosen - Herz Brennt tab

Artist: Die Toten Hosen
Tuing: standart


PM - Palm Muted



Intro:

e|---|
a|---|
g|---|
D|-8-|
A|-8-| x16
E|-6-|
  PM

Riff 1:


e|---------|---------|---------|---------|
a|---------|---------|---------|---------|
g|---------|---------|---------|-8-------|
D|-8-------|-3-------|-5-------|-8--x 16-|  x 2
A|-8--x 16-|-3--x 16-|-5--x 16-|-6-------|
E|-6-------|-1-------|-3-------|-6-------|
  PM        PM        PM        PM


Riff 2:

e|---------|---------|---------|---------|---------|
a|---------|---------|---------|---------|---------|
g|---------|-7-------|-8-------|---------|---------|
D|-5-------|-7--x 16-|-8--x 16-|-8-------|-3-------|  x 1
A|-5--x 16-|-5-------|-6-------|-8--x 16-|-3--x 16-|
E|-3-------|-5-------|-6-------|-6-------|-1-------|
  PM        PM        PM        PM        PM

Riff 1  |x  1


Riff 3:

e|---------|---------|---------|---------|
a|---------|---------|---------|---------|
g|---------|-7-------|-8-------|---------|
D|-5-------|-7--x 16-|-8--x 16-|-8-------|  x 1
A|-5--x 16-|-5-------|-6-------|-8--x 16-|
E|-3-------|-5-------|-6-------|-6-------|
  PM        PM        PM        PM        


Chorus:

e|-----|-----|-----|-----|-----|
a|-----|-----|-----|-----|-----|
g|-----|-----|-----|--8--|-----|
D|--8--|--3--|--5--|--8--|--3--|  x 2 
A|--8--|--3--|--5--|--6--|--3--|
E|--6--|--1--|--3--|--6--|--1--|


Brigde:


e|----------|
a|----------|
g|----------|
D|-5----5---|  x 2
A|-5----6---|
E|-3----3---|


Riff 1  |x 1

Riff 3  |x 1

Chorus  |x 2

Outro: 

e|-----|-----|-----|-----|
a|-----|-----|-----|-----|
g|-----|-----|-----|--8--|
D|--8--|--3--|--5--|--8--|  x 2
A|--8--|--3--|--5--|--6--|
E|--6--|--1--|--3--|--6--|

Ring out with:

e|---|
a|---|
g|---|
D|-8-|
A|-8-|
E|-6-|
Tap to rate this tab
# A B C D E F G H I J K L M N O P Q R S T U V W X Y Z